Zornik - Its So Unreal Chords & Tabs

 

Its So Unreal Chords & Tabs

Zornik Chords & Tabs

Version: 1 Type: Tab 0 ratings
1 star 2 stars 3 stars 4 stars 5 stars
comments

Its So Unreal Tab

   
It's so unreal - Zornik

Capo on 2nd fret

Intro: D



      D	   Dmaj7	      Asus   A
E ----2----2------2----2------0------0----0-----0------------------------------------
B ----3----2------3----2------3------2----3-----2------------------------------------
G ----2----2------2----2------2------2----2-----2------------------------------------
D ----0----0------0----0------2------2----2-----2------------------------------------
A -----------------------------------------------------------------------------------
E -----------------------------------------------------------------------------------


it's not hard to know when your body is aching
I'm alone at night and I don't seem to be patient now

G	   	              F#
and I don't know the rules to win

	   Bm			A     G
believe in my dreams (that) I'm gonna have

		  F#		Bm	  A      G  	 A
but before I even met the other ones that long obsessed


D-chord

E -----2--------2---
B --3-------3-------
G --2-------2-------	}x3
D ------------------
A ------------------
E ------------------		}x4
[ Tab from: http://www.guitartabs.cc/tabs/z/zornik/its_so_unreal_tab.html ]
E -----2----3----2--
B --3---------------
G --2---------------	
D ------------------
A ------------------
E ------------------

have you been lost I'm looking for
the songs I need before I go
my house my town 'cause I said so
and I will go

D    Bm     A      G      D
it's so unreal and I will love
    Bm       A         G    D 
the things I feel are not a joke
     Bm    A       G      D
it's so unreal and I will love
    Bm       A     G      D
the things I feel



it's not hard to know when your body is aching
I'm alone at night and I don't seem to be patient now

and I don't know the rules to win
believe in my dreams (that) I'm gonna have
but before I even met the other ones that long obsessed

have you been lost I'm looking for
the songs I need before I go
my house my town 'cause I said so
and I will go

it's so unreal and I will love
the things I feel are not a joke
it's so unreal and I will love
the things I feel

A chord seems to be missing between G and F#, possibly Gm???

Tabbed by Frank Van Bouwel

Please send remarks to:
frank@fientje.be
Comments