Zornik - Its So Unreal Chords & Tabs

 

Its So Unreal Chords & Tabs

Zornik Chords & Tabs

Version: 2 Type: Bass Tab 0 ratings
1 star 2 stars 3 stars 4 stars 5 stars
comments

Its So Unreal Bass Tab

   
Zornik- It's so unreal
-----------------------

G|---------------------------------|
D|---------------------------------|
A|---------------------------------|
E|-0-0-0-0-0-0-0-0-0-0-0-0-0-0-0-0-|

verse
G|---------------------------------------------------------------|
D|---------------------------------------------------------------|
A|-7-7-7-7-7-7-7-7-7-7-7-7-7-7-7-7-2-2-2-2-2-2-2-2-2-2-2-2-0-2-3-|
E|---------------------------------------------------------------|
[ Tab from: http://www.guitartabs.cc/tabs/z/zornik/its_so_unreal_btab_ver_2.html ]
pre-chorus
G|-----------------------------------------------------6-----4-|
D|---------------------------------------------------6-----4---|
A|-------------------------------------------------4-----2-----|
E|-5-5-5-5-5-5-5-5-5-5-5-5-5-5-5-5-4-4-4-4-4-4-4-4-------------|

G|-----------------------------------------------------6-----4-------|
D|---------------------------------------------------6-----4---------|
A|-------------------------------------------------4-----2-----------|
E|-5-5-5-5-5-5-5-5-5-5-5-5-5-5-5-5-4-4-4-4-4-4-4-4-------------5---7-|

chorus
G|---------------------------------|
D|---------------------------------|
A|-7-7-7-7-4-4-4-4-2-2-2-2-0-0-0-0-|
E|---------------------------------|
     play a couple of times and then this again

G|---------------------------------|
D|---------------------------------|
A|---------------------------------|
E|-0-0-0-0-0-0-0-0-0-0-0-0-0-0-0-0-|


That's it enjoy!!!!!

comment? don't mail me!!!!!
'S.O.H.' Bert
Comments