Zombies - I Cant Make Up My Mind Chords & Tabs

 

I Cant Make Up My Mind Chords & Tabs

Zombies Chords & Tabs

Version: 1 Type: Tab 0 ratings
1 star 2 stars 3 stars 4 stars 5 stars
comments

I Cant Make Up My Mind Tab

   
I Can't Make Up My Mind
Performed by The Zombies


(Main Riff)
  Am            G
E-7-5-5--5--7-5-3--3---------------------------------------
B-5-5-5--5--5-5-3--3---------------------------------------
G-5-5-5--5--5-5-4--4---------------------------------------
D-7---7--7--7---5--5---------------------------------------
A-7---7--7--7---5--5---------------------------------------
E----------------------------------------------------------

(Verse)
Am           G           Am             G
I can't make up my mind, someone has to help me
                F                         
I never seem to know what to do, I just can't decide for
Am
myself

(Chorus)
           C                           
She said, "Why don't you come back home to me?"
 G                                         F
"Why don't you come back, come back, where you belong,
           B
I need you here?"
[ Tab from: http://www.guitartabs.cc/tabs/z/zombies/i_cant_make_up_my_mind_tab.html ]
(Guitar solo)
E----------------------------------------------------------
B----------------------------------------------------------
G-------------------------------------------------9--------
D---5-7^8^7-5-7--5^7^5---5----5-7^8^7-5-7-9-10-12---12-----
A-7--------------------7----7------------------------------
E----------------------------------------------------------

E----------------------------------------------------------
B----------------------------------------------------------
G----------------------------------------------------------
D-5^7^5---5----5-7^8^7-5-7--7^8^7-5-7--5-------------------
A-------7----7---------------------------7\5-3-------------
E----------------------------------------------5-----------

E----------------------------------------------------------
B----------------------------------------------------------
G----------------------------------------------------------
D-----------------5----------------------------------------
A---------0-3-5/7------------------------------------------
E-0-3-0-3--------------------------------------------------


Comments