Zombies - Hung Up On A Dream Chords & Tabs

 

Hung Up On A Dream Chords & Tabs

Zombies Chords & Tabs

Version: 1 Type: Tab 0 ratings
1 star 2 stars 3 stars 4 stars 5 stars
comments

Hung Up On A Dream Tab

   
Hung Up On a Dream (Argent)
From the Zombies' 1968 album 'Odessey and Oracle.'


  G                  Em               C        E
E--------------------2-0-0-----0-2-3-----------0------------
B--------------------0-0-0---0--------1-1-1-1--0------------
G--------------------0-0-0---0--------0-0-0-0--1-(5x)-------
D-------4---5---4----2-2-2-2----------2-2-2-2--2------------
A-5---5---5---5-----------------------3-3-3-3--2------------
E---3-----3---3---3----------------------------0------------

(Verse 1)
Well, I remember yesterday
Just drifting slowly through a crowded street
With neon darkness shimmering through the haze
A sea of faces rippling in the heat
And through that namesless changing crowd
A sweet vibration seemed to fill the air
I stood astounded staring hard
At men with flowers resting in their hair

(Guitar Solo w/2 guitar sound)

E-7--8--7--8--7--8--7--7--12--12--7--5--3--3-------------
B--------------------------------------------------------
G--------------------------------------------------------
D--------------------------------------------------------
A--------------------------------------------------------
E--------------------------------------------------------

E--------------------------------------------------------
B--------------------------------------------------------
G--------------------------------------------------------
D-9--10--9--10--9--10--9--9--14--14--9--7--5--5----------
A--------------------------------------------------------
E--------------------------------------------------------

E-12--10--12--8---10--12--10----10-----------------------
B----------------------------12----12-8------------------
G--------------------------------------------------------
D-10--10--10--10--10--10--9--9--9--9--5------------------
A--------------------------------------------------------
E--------------------------------------------------------
[ Tab from: http://www.guitartabs.cc/tabs/z/zombies/hung_up_on_a_dream_tab.html ]
E-8---7--8---5--7--8---7-----7---------------------------
B-------------------------9-----9------------------------
G----------------------------------9---------------------
D-10--9--10--7--9--10--9--9--9--9--9---------------------
A--------------------------------------------------------
E--------------------------------------------------------

E-9---7--9---6--7--9---10--7--3--0--2--3--2--2-----------
B--------------------------------------------------------
G--------------------------------------------------------
D-11--9--11--8--9--11--12--9--5--2--4--5--4--------------
A--------------------------------------------------------
E--------------------------------------------------------

E-0--2--3--5--7--8---10--12--14--------------------------
B--------------------------------------------------------
G--------------------------------------------------------
D-2--4--5--7--9--10--12--14--16--------------------------
A--------------------------------------------------------
E--------------------------------------------------------


(Bridge)
A sweet confusion filled my mind
Until I woke up only finding everything was just a dream
A dream unusual of its kind
That gave me peace and blew my mind
And now I'm hung up on a dream

E-7--5--7--5--7--5--3--5--7------------------------------
B--------------------------------------------------------
G--------------------------------------------------------
D-9--7--9--7--9--7--5--7--9------------------------------
A--------------------------------------------------------
E--------------------------------------------------------

(Verse 2)
They spoke with soft persuading words
About a living creed of gentle love
And turned me on to sounds unheard
And showed me strange and clouded sights above
Which gently touched my aching mind
And soothed the wanderings of my troubles mind
Sometimes I think I'll never find
Such purity and peace of mind there


(questions, comments, email at kakarotto@cybermesa.com)


Comments