Zombie Rob - Never Gonna Stop Chords & Tabs

 

Never Gonna Stop Chords & Tabs

Zombie Rob Chords & Tabs

Version: 1 Type: Tab 0 ratings
1 star 2 stars 3 stars 4 stars 5 stars
comments

Never Gonna Stop Tab

Rob Zombie -  NEVER GONNA STOP (the red, red kroovy)
The Sinister Urge (2001)

AKA (for us wrestling fans): Edge's Entrance Theme

/ = slide up
 = slide down
~ = vibrato
" = tremolo



As far as i know, it's close to standard tuning with a little bit of fixing.
Just tune your B 1/2 step up.

Intro:
e|---------------------------------------------------------------------------|
B|---------------------------------------------------------------------------|
G|-------5---7---3---3---3-5-------------------------------------------------|
D|---------------------------------------------------------------------------|
A|---3-3--3-3-3-3-3-3-3-3----------------------------------------------------|
E|---------------------------------------------------------------------------|

e|---------------------------------------------------------------------------|
B|---------------------------------------------------------------------------|
G|-------5---7---3---3---3-2-------------------------------------------------|
D|---------------------------------------------------------------------------|
A|---3-3--3-3-3-3-3-3-3-3----------------------------------------------------|
E|---------------------------------------------------------------------------|

RIFF 1:
e|---------------------------------------------------------------------------|
B|---0-0-12-0-0-14-0-0-10-0-0-10-0-0-10-12-----------------------------------|
G|---------------------------------------------------------------------------|
D|---------------------------------------------------------------------------|
A|---------------------------------------------------------------------------|
E|---------------------------------------------------------------------------|

e|---------------------------------------------------------------------------|
B|---0-0-12-0-0-14-0-0-10-0-0-10-0-0-10-9------------------------------------|
G|---------------------------------------------------------------------------|
D|---------------------------------------------------------------------------|
A|---------------------------------------------------------------------------|
E|---------------------------------------------------------------------------|

e|---------------------------------------------------------------------------|
B|---0-0-12-0-0-14-0-0-10-0-0-10-0-0-10-12-----------------------------------|
G|---------------------------------------------------------------------------|
D|---------------------------------------------------------------------------|
A|---------------------------------------------------------------------------|
E|---------------------------------------------------------------------------|

e|---------------------------------------------------------------------------|
B|---0-0-12-0-0-14-0-0-10-0-0-10-0-0-10-9------------------------------------|
G|---------------------------------------------------------------------------|
D|---------------------------------------------------------------------------|
A|---------------------------------------------------------------------------|
E|---------------------------------------------------------------------------|

There's a fairly long wait for Riggs on guitar during the verse, and I can't 
hear a guitar part, except the bassline

yeah my durango number 95 take me to the home kick boots and ultra live see
heaven flash a horror show knock it nice and smooth step back and watch it
flow yeah

RIFF 2 (NEVER GONNA STOP ME! NEVER GONNA STOP!):
e|---------------------------------------------------------------------------|
B|---------------------------------------------------------------------------|
G|---------------------------------------------------------------------------|
D|---5/7-7-5/7-10-5/7-7-5/7--------------------------------------------------|
A|---3/5-5-3/5-8--3/5-5-3/5--------------------------------------------------|
E|---------------------------------------------------------------------------|
    NEVER GONNA STOP ME! NEVER GONNA STOP!

then this part in between 'NEVER GONNA STOP ME! NEVER GONNA STOP!'.... i
really don't know what Riggs does to make this sound,
and I can't put it into words, but it's a damn cool sound...
but this is just what I've interpretated

e|---------------------------------------------------------------------------|
B|---0-----------------------------------------------------------------------|
G|---4-(Bend and release the note 1/2 step twice)----------------------------|
D|---------------------------------------------------------------------------|
A|---------------------------------------------------------------------------|
E|---------------------------------------------------------------------------|

with that little part, you'll have to listen to the song A LOT and let your
ear pick it up and fix it around


e|---------------------------------------------------------------------------|
B|---------------------------------------------------------------------------|
G|---------------------------------------------------------------------------|
D|---5/7-7-5/7-10-5/7-7-5/7-10-5---------------------------------------------|
A|---3/5-5-3/5-8--3/5-5-3/5-8--3---------------------------------------------|
E|---------------------------------------------------------------------------|
    NEVER GONNA STOP ME! NEVER GONNA STOP!

e|---------------------------------------------------------------------------|
B|---------------------------------------------------------------------------|
G|---------------------------------------------------------------------------|
D|---5/7-7-5/7-10-5/7-7-5/7--------------------------------------------------|
A|---3/5-5-3/5-8--3/5-5-3/5--------------------------------------------------|
E|---------------------------------------------------------------------------|
    NEVER GONNA STOP ME! NEVER GONNA STOP!

e|---------------------------------------------------------------------------|
B|---0-----------------------------------------------------------------------|
G|---4-(Bend and release the note 1/2 step twice)----------------------------|
D|---------------------------------------------------------------------------|
A|---------------------------------------------------------------------------|
E|---------------------------------------------------------------------------|

e|---------------------------------------------------------------------------|
B|----------------5-7-7-5-7--------------------------------------------------|
G|---------------------------------------------------------------------------|
D|---5/7-7-5/7-10------------------------------------------------------------|
A|---3/5-5-3/5-8-------------------------------------------------------------|
E|---------------------------------------------------------------------------|
    NEVER GONNA STOP ME! NEVER GONNA STOP! ({echo} STOP! STOP! STOP!)

RIFF 1:
e|---------------------------------------------------------------------------|
B|---0-0-12-0-0-14-0-0-10-0-0-10-0-0-10-12-----------------------------------|
G|---------------------------------------------------------------------------|
D|---------------------------------------------------------------------------|
A|---------------------------------------------------------------------------|
E|---------------------------------------------------------------------------|

e|---------------------------------------------------------------------------|
B|---0-0-12-0-0-14-0-0-10-0-0-10-0-0-10-9------------------------------------|
G|---------------------------------------------------------------------------|
D|---------------------------------------------------------------------------|
A|---------------------------------------------------------------------------|
E|---------------------------------------------------------------------------|

e|---------------------------------------------------------------------------|
B|---0-0-12-0-0-14-0-0-10-0-0-10-0-0-10-12-----------------------------------|
G|---------------------------------------------------------------------------|
D|---------------------------------------------------------------------------|
A|---------------------------------------------------------------------------|
E|---------------------------------------------------------------------------|

e|---------------------------------------------------------------------------|
B|---0-0-12-0-0-14-0-0-10-0-0-10-0-0-10-9------------------------------------|
G|---------------------------------------------------------------------------|
D|---------------------------------------------------------------------------|
A|---------------------------------------------------------------------------|
E|---------------------------------------------------------------------------|

this next part during this verse, I'm having a little trouble on figuring it
out, but this is basically the jist of it...

e|---------------------------------------------------------------------------|
B|---12"-12"/15-12"-12"-12"/15-10"-9"-8"-------------------------------------|
G|---------------------------------------------------------------------------|
D|---------------------------------------------------------------------------|
A|---------------------------------------------------------------------------|
E|---------------------------------------------------------------------------|

e|---------------------------------------------------------------------------|
B|---12"-12"/15-12"/15-12"/15-10"-9"-8"--------------------------------------|
G|---------------------------------------------------------------------------|
D|---------------------------------------------------------------------------|
A|---------------------------------------------------------------------------|
E|---------------------------------------------------------------------------|

Yeah The devil ride a dinasaur he paint the monster red so the blood don't
stain the floor in out real savage show sorry as a shot came sickness watch
it flow yeah

RIFF 2 (NEVER GONNA STOP ME! NEVER GONNA STOP!):
e|---------------------------------------------------------------------------|
B|---------------------------------------------------------------------------|
G|---------------------------------------------------------------------------|
D|---5/7-7-5/7-10-5/7-7-5/7--------------------------------------------------|
A|---3/5-5-3/5-8--3/5-5-3/5--------------------------------------------------|
E|---------------------------------------------------------------------------|
    NEVER GONNA STOP ME! NEVER GONNA STOP!

e|---------------------------------------------------------------------------|
B|---0-----------------------------------------------------------------------|
G|---4-(Bend and release the note 1/2 step twice)----------------------------|
D|---------------------------------------------------------------------------|
A|---------------------------------------------------------------------------|
E|---------------------------------------------------------------------------|

e|---------------------------------------------------------------------------|
B|---------------------------------------------------------------------------|
G|---------------------------------------------------------------------------|
D|---5/7-7-5/7-10-5/7-7-5/7-10-5---------------------------------------------|
A|---3/5-5-3/5-8--3/5-5-3/5-8--3---------------------------------------------|
E|---------------------------------------------------------------------------|
    NEVER GONNA STOP ME! NEVER GONNA STOP!
[ Tab from: http://www.guitartabs.cc/tabs/z/zombie_rob/never_gonna_stop_tab.html ]
e|---------------------------------------------------------------------------|
B|---------------------------------------------------------------------------|
G|---------------------------------------------------------------------------|
D|---5/7-7-5/7-10-5/7-7-5/7--------------------------------------------------|
A|---3/5-5-3/5-8--3/5-5-3/5--------------------------------------------------|
E|---------------------------------------------------------------------------|
    NEVER GONNA STOP ME! NEVER GONNA STOP!

e|---------------------------------------------------------------------------|
B|---0-----------------------------------------------------------------------|
G|---4-(Bend and release the note 1/2 step twice)----------------------------|
D|---------------------------------------------------------------------------|
A|---------------------------------------------------------------------------|
E|---------------------------------------------------------------------------|

e|---------------------------------------------------------------------------|
B|----------------5-7-7-5-7~-------------------------------------------------|
G|---------------------------------------------------------------------------|
D|---5/7-7-5/7-10------------------------------------------------------------|
A|---3/5-5-3/5-8-------------------------------------------------------------|
E|---------------------------------------------------------------------------|
    NEVER GONNA STOP ME! NEVER GONNA STOP!

e|---------------------------------------------------------------------------|
B|---5-5-5/7-5-5-5/7-5-5-----------------------------------------------------|
G|---------------------------------------------------------------------------|
D|---------------------------------------------------------------------------|
A|---------------------------------------------------------------------------|
E|---------------------------------------------------------------------------|

SCREAM IF YOU WANT IT!!!

e|---------------------------------------------------------------------------|
B|---5-5-5/7-5-5-5/7-5-5-----------------------------------------------------|
G|---------------------------------------------------------------------------|
D|---------------------------------------------------------------------------|
A|---------------------------------------------------------------------------|
E|---------------------------------------------------------------------------|

CAUSE I WANT MORE!!!

e|---------------------------------------------------------------------------|
B|---5-5-5/7-5-5-5/7-5-5-----------------------------------------------------|
G|---------------------------------------------------------------------------|
D|---------------------------------------------------------------------------|
A|---------------------------------------------------------------------------|
E|---------------------------------------------------------------------------|

SCREAM IF YOU WANT IT!!!

e|---------------------------------------------------------------------------|
B|---5-5-5/7-5-5-5/7-5-5-----------------------------------------------------|
G|---------------------------------------------------------------------------|
D|---------------------------------------------------------------------------|
A|---------------------------------------------------------------------------|
E|---------------------------------------------------------------------------|

CAUSE I WANT MORE!!!

RIFF 1:
e|---------------------------------------------------------------------------|
B|---0-0-12-0-0-14-0-0-10-0-0-10-0-0-10-12-----------------------------------|
G|---------------------------------------------------------------------------|
D|---------------------------------------------------------------------------|
A|---------------------------------------------------------------------------|
E|---------------------------------------------------------------------------|

e|---------------------------------------------------------------------------|
B|---0-0-12-0-0-14-0-0-10-0-0-10-0-0-10-12-----------------------------------|
G|---------------------------------------------------------------------------|
D|---------------------------------------------------------------------------|
A|---------------------------------------------------------------------------|
E|---------------------------------------------------------------------------|

e|---------------------------------------------------------------------------|
B|---0-0-12-0-0-14-0-0-10-0-0-10-0-0-10-9------------------------------------|
G|---------------------------------------------------------------------------|
D|---------------------------------------------------------------------------|
A|---------------------------------------------------------------------------|
E|---------------------------------------------------------------------------|

e|---------------------------------------------------------------------------|
B|---0-0-12-0-0-14-0-0-10-0-0-10-0-0-10-12-----------------------------------|
G|---------------------------------------------------------------------------|
D|---------------------------------------------------------------------------|
A|---------------------------------------------------------------------------|
E|---------------------------------------------------------------------------|

e|---------------------------------------------------------------------------|
B|---0-0-12-0-0-14-0-0-10-0-0-10-0-0-10-9------------------------------------|
G|---------------------------------------------------------------------------|
D|---------------------------------------------------------------------------|
A|---------------------------------------------------------------------------|
E|---------------------------------------------------------------------------|

Back to verse 1:

e|---------------------------------------------------------------------------|
B|---12"-12"/15-12"-12"-12"/15-10"-9"-8"-------------------------------------|
G|---------------------------------------------------------------------------|
D|---------------------------------------------------------------------------|
A|---------------------------------------------------------------------------|
E|---------------------------------------------------------------------------|

e|---------------------------------------------------------------------------|
B|---12"-12"/15-12"/15-12"/15-10"-9"-8"--------------------------------------|
G|---------------------------------------------------------------------------|
D|---------------------------------------------------------------------------|
A|---------------------------------------------------------------------------|
E|---------------------------------------------------------------------------|

yeah my durango number 95 take me to the home kick boots and ultra live see
heaven flash a horror show knock it nice and smooth step back and watch it
flow yeah

RIFF 2 (NEVER GONNA STOP ME! NEVER GONNA STOP!):
e|---------------------------------------------------------------------------|
B|---------------------------------------------------------------------------|
G|---------------------------------------------------------------------------|
D|---5/7-7-5/7-10-5/7-7-5/7--------------------------------------------------|
A|---3/5-5-3/5-8--3/5-5-3/5--------------------------------------------------|
E|---------------------------------------------------------------------------|
    NEVER GONNA STOP ME! NEVER GONNA STOP!

e|---------------------------------------------------------------------------|
B|---0-----------------------------------------------------------------------|
G|---4-(Bend and release the note 1/2 step twice)----------------------------|
D|---------------------------------------------------------------------------|
A|---------------------------------------------------------------------------|
E|---------------------------------------------------------------------------|

e|---------------------------------------------------------------------------|
B|---------------------------------------------------------------------------|
G|---------------------------------------------------------------------------|
D|---5/7-7-5/7-10-5/7-7-5/7-10-5---------------------------------------------|
A|---3/5-5-3/5-8--3/5-5-3/5-8--3---------------------------------------------|
E|---------------------------------------------------------------------------|
    NEVER GONNA STOP ME! NEVER GONNA STOP!

e|---------------------------------------------------------------------------|
B|---------------------------------------------------------------------------|
G|---------------------------------------------------------------------------|
D|---5/7-7-5/7-10-5/7-7-5/7--------------------------------------------------|
A|---3/5-5-3/5-8--3/5-5-3/5--------------------------------------------------|
E|---------------------------------------------------------------------------|
    NEVER GONNA STOP ME! NEVER GONNA STOP!

e|---------------------------------------------------------------------------|
B|---0-----------------------------------------------------------------------|
G|---4-(Bend and release the note 1/2 step twice)----------------------------|
D|---------------------------------------------------------------------------|
A|---------------------------------------------------------------------------|
E|---------------------------------------------------------------------------|

e|---------------------------------------------------------------------------|
B|----------------5-7-7-5-7~-------------------------------------------------|
G|---------------------------------------------------------------------------|
D|---5/7-7-5/7-10------------------------------------------------------------|
A|---3/5-5-3/5-8-------------------------------------------------------------|
E|---------------------------------------------------------------------------|
    NEVER GONNA STOP ME! NEVER GONNA STOP!

e|---------------------------------------------------------------------------|
B|---5-5-5/7-5-5-5/7-5-5-----------------------------------------------------|
G|---------------------------------------------------------------------------|
D|---------------------------------------------------------------------------|
A|---------------------------------------------------------------------------|
E|---------------------------------------------------------------------------|

SCREAM IF YOU WANT IT!!!

e|---------------------------------------------------------------------------|
B|---5-5-5/7-5-5-5/7-5-5-----------------------------------------------------|
G|---------------------------------------------------------------------------|
D|---------------------------------------------------------------------------|
A|---------------------------------------------------------------------------|
E|---------------------------------------------------------------------------|

CAUSE I WANT MORE!!!

e|---------------------------------------------------------------------------|
B|---5-5-5/7-5-5-5/7-5-5-----------------------------------------------------|
G|---------------------------------------------------------------------------|
D|---------------------------------------------------------------------------|
A|---------------------------------------------------------------------------|
E|---------------------------------------------------------------------------|

SCREAM IF YOU WANT IT!!!

e|---------------------------------------------------------------------------|
B|---5-5-5/7-5-5-5/7-5-5-----------------------------------------------------|
G|---------------------------------------------------------------------------|
D|---------------------------------------------------------------------------|
A|---------------------------------------------------------------------------|
E|---------------------------------------------------------------------------|

CAUSE I WANT MORE!!!

that's about it!! i'll work more on this in the future, because there's
always room for improvement...

and this might be Rob Zombie's best!

tell me what you think.... rate it, 1-10, and how does it compare to other
Rob Zombie/NEVER GONNA STOP (the red, red kroovy) TABS?

email me, XZombie6x6x6@aol.com
Comments