Zombie Rob - Never Gonna Stop Me Chords & Tabs


Never Gonna Stop Me Chords & Tabs

Zombie Rob Chords & Tabs

Version: 4 Type: Tab 3 ratings
1 star 2 stars 3 stars 4 stars 5 stars

Never Gonna Stop Me Tab

 Repeat this until he starts singing
E --------------------------------------------------------
B --------------------------------------------------------
G -----5-----7-----3----3-----3--5------------------------------
D --------------------------------------------------------
A --33----33----33---33----33---------------------------------------
E --------------------------------------------------------

  Repeat this
[ Tab from: http://www.guitartabs.cc/tabs/z/zombie_rob/never_gonna_stop_me_tab_ver_4.html ]
   Repeat this when he says never gonna stop me
 E -------------------------------------------------------
 B -------------------------------------------------------
 G -------------------------------------------------------
 D ----------------3---------------------------------------
 A -3--5--5--5--5--1--------------------------------------------
 E -1--3--3--3--3----------------------------------------------
  I don't know the solo but after the solo you just do the exact same 
  Thing Trust me i asked my guitar teacher how to play the song and 
  this is exactly what he told me but i will ask him what the solo is
  on the bass right when he starts singing he pauses the guitar and if
  you listen real close you can here the bass and that is what you
  Play until he sings never gonna stop me and after that start from 
  the beginning again.