Zombie Rob - Never Gonna Stop Me Chords & Tabs

 

Never Gonna Stop Me Chords & Tabs

Zombie Rob Chords & Tabs

Version: 1 Type: Tab 0 ratings
1 star 2 stars 3 stars 4 stars 5 stars
comments

Never Gonna Stop Me Tab

 Name: Never gonna stop me
 Artist: Rob Zombie

/ = slide down neck
 = slide up

Play this before the verse begins

E -------------------------------------
B -------------------------------------
G -----5-----7-----3----3-----3/5-----
D -------------------------------------
A --33---33----33---33----33-----------
E -------------------------------------



Chorus:
E -------------------------------------
B -------------------------------------
G -------------------------------------
D -----------3------------------5/10---
A –3/5-5-5-5-1------1/3—5—5-5---------
E –1/3-3-3-3--------1/3-3—3-3---------

E -------------------------------------
B -------------------------------------
G -------------------------------------
D -----------3------------------3------
A –3/5-5-5-5-1------1/3—5—5-5--1------
E –1/3-3-3-3--------1/3-3—3-3---------
[ Tab from: http://www.guitartabs.cc/tabs/z/zombie_rob/never_gonna_stop_me_tab.html ]
E -------------------------------------
B -------------------------------------
G -------------------------------------
D -----------3------------------5/10---
A –3/5-5-5-5-1------3/5—5—5-5---------
E –1/3-3-3-3--------1/3—3-3-3---------

E -------------------------------------
B -------------------------------------
G -------------------------------------
D -----------3-------------------------
A –3/5-5-5-5-1------3/5—5—5-5---------
E –1/3-3-3-3--------1/3—3-3-3---------
 
Pre Chorus:                       
E -------------------------------------
B -------------------------------------
G –10-10/1210-10/1210----------------
D ------------------------------------- x4
A -------------------------------------
E ------------------------------------- 
                        “Scream if u want it…”


Well im pretty sure that thats correct.enjoy :)
Comments