Zombie Rob - Living Dead Girl Chords & Tabs

 

Living Dead Girl Chords & Tabs

Zombie Rob Chords & Tabs

Version: 2 Type: Tab 2 ratings
1 star 2 stars 3 stars 4 stars 5 stars
comments

Living Dead Girl Tab

Chorus

1|----3---4---3---2~---3---4---3---2~---3---4---3---2|
2|----3---4---3---2~---3---4---3---2~---3---4---3---2|
3|----3---4---3---2~---3---4---3---2~---3---4---3---2|
4|----3---4---3---2~---3---4---3---2~---3---4---3---2|
5|----3---4---3---2~---3---4---3---2~---3---4---3---2|
6|----3---4---3---2~---3---4---3---2~---3---4---3---2|

Repeat Twice

Between choruses, play this
[ Tab from: http://www.guitartabs.cc/tabs/z/zombie_rob/living_dead_girl_tab_ver_2.html ]
1|----------2----------2----------2----------2--------|
2|----------2----------2----------2----------2--------|
3|----------2----------2----------2----------2--------|
4|----------2----------2----------2----------2--------|
5|----------2----------2----------2----------2--------|
6|----------2----------2----------2----------2--------|

kepp alternating between the two, until the song is finished
Comments