Zombie Rob - American Witch Chords & Tabs

 

American Witch Chords & Tabs

Zombie Rob Chords & Tabs

Version: 1 Type: Tab 1 rating
1 star 2 stars 3 stars 4 stars 5 stars
comments

American Witch Tab

   
Artist: Rob Zombie
Song: American Witch
Album: Educated Horses
Tabbed by: z3hp@yahoo.com x86iso.com/guitar/ 
Tuning: Drop D

Any questions or comments please email me at z3hp@yahoo.com

Intro/Verse/Riff 1
Guitar 1

E---------------------------------------------------------------------------|
B---------------------------------------------------------------------------|
G---------------------------------------------------------------------------|
D---------------------------------------------------------------------------|
A-2-2-2-2--2-2-2--3-2---2-2-2-2-3-2/6---2-2-2-2--2-2-2--3-2--2-2-2-2-3-2-0--|
E---------------------------------------------------------------------------|
  PM------------        PM-----         PM------------       PM-----


Intro/Riff 2
Guitar 2

E---------------------------------------------------------------------------|
B--12----12-12-12-12----12-12-12-12----12-12/15-----------------------------|
G--15b16-16-16-16-15b16-16-16-16-15b16-16-16/19-----------------------------|
F---------------------------------------------------------------------------|
A---------------------------------------------------------------------------|
E---------------------------------------------------------------------------|

E---------------------------------------------------------------------------|
B--12----12-12-12-12----12-12-12-12----12-12\7------------------------------|
G--15b16-16-16-16-15b16-16-16-16-15b16-16-16\10-----------------------------|
D---------------------------------------------------------------------------|
A---------------------------------------------------------------------------|
E---------------------------------------------------------------------------|

Verse
Guitar 1 Plays Riff 1

Chorus
Guitar 1 Plays Riff 1

Chorus/Riff 3
Guitar 2
[ Tab from: http://www.guitartabs.cc/tabs/z/zombie_rob/american_witch_tab.html ]
E---------------------------------------------------------------------------|
B---------------------------------------------------------------------------|
G---------------------------------------------------------------------------|
D--9-9-\-7-----9-9-\-7-----------------------9-9-\-7-----9-9-\-7------------|
A--9-9-\-7-----9-9-\-7-----------------------9-9-\-7-----9-9-\-7------------|
E--9-9-\-7-----9-9-\-7-----------------------9-9-\-7-----9-9-\-7------------|

Verse
Guitar 1 Plays Riff 1
Guitar 2 Plays Riff 1

Chorus
Guitar 1 Plays Riff 1
Guitar 2 Plays Riff 3

Bridge 1
Guitar 1&2/Riff 4

E----------------------------------------------------------------------------|
B----------------------------------------------------------------------------|
G----------------------------------------------------------------------------|
D----------------------------------------------------------------------------|
A----------------------------------------------------------------------------|
E--0-2-3--0-3-5--0-5-7--0-7-9--0-9/12b~---0-2-3--0-3-5--0-5-7--0-7-9--0-9/7b~|

Bridge 2
Guitar 1/Riff 5

E---------------------------------------------------------------------------|
B---------------------------------------------------------------------------|
G--------16------------------------16----14---------------------------------|
D---------------------------------------------------------------------------|
A--14-15---------------------14-15----14------------------------------------|
E---------------------------------------------------------------------------|


Bridge 2
Guitar 2/Riff 6

E--15-14-15-14-15-14-15/19---15-14-15-14-15-14-15/19------------------------|
B---------------------------------------------------------------------------|
G---------------------------------------------------------------------------|
D---------------------------------------------------------------------------|
A---------------------------------------------------------------------------|
E---------------------------------------------------------------------------|

Verse
Guitar 1 Plays Riff 1

Chorus
Guitar 1 Plays Riff 1
Guitar 2 Plays Riff 3


PM = Palm Mute
b = Bend
/ = Slide Up
\ = Slide Down
~ = Vibrato
Comments