Zoe - Miel Acoustic Chords & Tabs

 

Miel Acoustic Chords & Tabs

Zoe Chords & Tabs

Version: 1 Type: Tab

Miel Acoustic Tab

   
Acoustic Version
Guitar 1 play chords

e-----2------1---------2-------0-----|
B-----3------3---------3-------0-----|
G-----4------3---------2-------1-----|
D-----4------3---------0-------2-----|
A-----2------1---------x-------2-----|
E-----2------1---------x-------0-----|
     Bm      Bb       D       E



    Bm             Bb       Bm            E
e-----------------------------------------------------------------|
B-----------------------------------------------------------------|
G-----------------------------------------------------------------|
D-------0---2-0-----------------0---2-0---------------------------|
A---2-2---2-----2-1----(0)*-2-2---2-----2-------------------------|
E-----------------------------------------0-----------------------|
X2
    Bm             Bb                D            E
e-----------------------------------------------------------------|
B-----------------------------------------------------------------|
G-----------------------------------------------------------------|
D-------0---2-0-------0---2-0------------0---2-0------------------|
A---2-2---2-----2-1-1---1-----1-0----2-2---2-----2----------------|
E-------------------------------------------------0-0-0-0-0-0-0-0-|
X3
   Bm             Bb              D             E
e-----------------------------------------------------------------|
B-----------------------------------------------------------------|
G-----------------------------------------------------------------|
D---------------------------------0-0-0-0-0-0-0-2-2-0-2-0-2-0-2-0-|
A--2-2-2-2-2-2-2-4-4-4-4-4-4-4-4-4--------------------------------|
E-----------------------------------------------------------------|

   Bm            Bb               D             E
e-----------------------------------------------------------------|
B-----------------------------------------------------------------|
G-----------------------------------------------------------------|
D---------------------------------0-0-0-0-0-0-0-2-----------------|
A--2-2-2-2-2-2-2-4-4-4-4-4-4-4-4-4--------------------------------|
E-----------------------------------------------------------------|

[ Tab from: http://www.guitartabs.cc/tabs/z/zoe/miel_acoustic_tab.html ]
    Bm            Bb        Bm            E
e-----------------------------------------------------------------|
B-----------------------------------------------------------------|
G-----------------------------------------------------------------|
D-------0---2-0-----------------0---2-0---------------------------|
A---2-2---2-----2-1----(0)*-2-2---2-----2-------------------------|
E-----------------------------------------0-----------------------|
X2
    Bm            Bb                 D            E
e-----------------------------------------------------------------|
B-----------------------------------------------------------------|
G-----------------------------------------------------------------|
D-------0---2-0-------0---2-0------------0---2-0------------------|
A---2-2---2-----2-1-1---1-----1-0----2-2---2-----2----------------|
E-------------------------------------------------0-0-0-0-0-0-0-0-|
X3
   Bm            Bb               D             E
e-----------------------------------------------------------------|
B-----------------------------------------------------------------|
G-----------------------------------------------------------------|
D---------------------------------0-0-0-0-0-0-0-2-2-0-2-0-2-0-2-0-|
A--2-2-2-2-2-2-2-4-4-4-4-4-4-4-4-4--------------------------------|
E-----------------------------------------------------------------|
X5
   Bm            Bb               D             E
e-----------------------------------------------------------------|
B-----------------------------------------------------------------|
G-----------------------------------------------------------------|
D---------------------------------0-0-0-0-0-0-0-2-----------------|
A--2-2-2-2-2-2-2-4-4-4-4-4-4-4-4-4--------------------------------|
E-----------------------------------------------------------------|


                            Bm*           E*
e-----------------------------------------------------------------|
B-----------------------------------------------------------------|
G-----------------------------------------------------------------|
D-------0---2-0-----------------0---2-0---------------------------|
A---2-2---2-----2-1----(0)*-2-2---2-----2-------------------------|
E-----------------------------------------0-----------------------|
X2