Zoe - Asteroide Chords & Tabs

 

Asteroide Chords & Tabs

Zoe Chords & Tabs

Version: 1 Type: Tab 0 ratings
1 star 2 stars 3 stars 4 stars 5 stars
comments

Asteroide Tab

!!! Mexico !!!Zoe- Asteroide

Fondo de la canción (Metal) pienso que se dece:


1------------------|
2------------------|
3------------------|
4---7-7---5---3----|
5---7-7---5---3----|
6---5-5-0-3-0-1----|

SOLO:
[ Tab from: http://www.guitartabs.cc/tabs/z/zoe/asteroide_tab.html ]
1-----------------------|
2-----------------------|
3-----------------------|
4---9-9-7-7-5--2-5-2-5--|
5-----------------------|
6-----------------------|



Si hay algun error o toda la cancion esta mal, porfavor haganmelo saber. BYE

Diego Amando Moreno Garza  pscience_fiction@hotmail.com
Comments