Zindoe - Odyssey Chords & Tabs

 

Odyssey Chords & Tabs

Zindoe Chords & Tabs

Version: 1 Type: Tab 0 ratings
1 star 2 stars 3 stars 4 stars 5 stars
comments

Odyssey Tab

   
ZINDOE
BY: JUSTIN MUNLEY
"This is my band"
ODYSSEY

E)------------------------------------------------------------------
B)------------------------------------------------------------------
G)------------------------------------------------------------------
D)------------------------------------------------------------------
A)------------------------------------------------------------------
E)-0-0-0-0-0-0-0-0-11-11-11-0-0-0-10-10-9-9-9-9-9-9--

E)------------------------------------------------------------------
B)------------------------------------------------------------------
G)------------------------------------------------------------------
D)------------------------------------------------------------------
A)------------------------------------------------------------------
E)-9-0-0-0-9-9-0-8-8-7-7-7-7-7-7-7-7-0-0-0-11-11-11-0

E)------------------------------------------------------------------
B)------------------------------------------------------------------
G)------------------------------------------------------------------
D)------------------------------------------------------------------
A)------------------------------------------------------------------
E)-0-0-10-10-9-9-9-9-9-9-9-0-0-0-9-9-0-8-8-7-7-7-7-7-


E)------------------------------------------------------------------
B)------------------------------------------------------------------
G)------------------------------------------------------------------
D)------------------------------------------------------------------
A)------------------------------------------------------------------
E)-7-7-7----------------------------------------------------------
(repeat this twice)
[ Tab from: http://www.guitartabs.cc/tabs/z/zindoe/odyssey_tab.html ]
E)------------------------------------------------------------------
B)------------------------------------------------------------------
G)------------------------------------------------------------------
D)------------------------------------------------------------------
A)------------------------------------------------------------------
E)-15-15-15-15-15-15-15-15-17-17-17-17-17-17-17-17

E)------------------------------------------------------------------
B)------------------------------------------------------------------
G)------------------------------------------------------------------
D)------------------------------------------------------------------
A)------------------------------------------------------------------
E)-19-19-19-19-19-19-19-19-17-15-13-13-16-13-13-13

E)------------------------------------------------------------------
B)------------------------------------------------------------------
G)------------------------------------------------------------------
D)------------------------------------------------------------------
A)------------------------------------------------------------------
E)-16-14-13-13-16-13-13-13-16-(repeat this part X3)---

E)------------------------------------------------------------------
B)------------------------------------------------------------------
G)------------------------------------------------------------------
D)------------------------------------------------------------------
A)------------------------------------------------------------------
E)-13-13-13-13-13-13-13-13-16-16-16-16-16-16-16-16

E)------------------------------------------------------------------
B)------------------------------------------------------------------
G)------------------------------------------------------------------
D)------------------------------------------------------------------
A)----------------------------------10-10------------------------
E)-11-11-11-11-11-11-11-11---------------------------------
(repeat this part twice)

MEMBERS OF ZINDOE: JUSTIN MUNLEY-GUITAR
RALPH CURE-DRUMS
Comments