Zimmer Hans - Nyah Chords & Tabs

 

Nyah Chords & Tabs

Zimmer Hans Chords & Tabs

Version: 3 Type: Tab 0 ratings
1 star 2 stars 3 stars 4 stars 5 stars
comments

Nyah Tab

   
This is my first tabbing project. The song, "Nyah", is composed by
Hans Zimmer and features Heitor Pereira. You can find it on the
Mission Impossible II soundtrack. I love this song, but could not
find any music or tab on it so I decided to figure it out on my
own. Feel free to send me any suggestions and corrections via:


(You'll have to have heard this song to know the rhythm. I don't
know how to specify pauses of various lengths in tab yet :\  Have
fun!)
                                                        Han Duong

h = hammer; p = pull-off; r = release

e ----------------------------------------2h3-3-3--5p3p2-2--------
B ----3-0-0h2---------------2-3-5--5-5-5--------------------3-0---
G ------------------------4---------------------------------------
D --4-------------------------------------------------------------
A ----------------------------------------------------------------
E ----------------------------------------------------------------


e ---------------7-6----------------------------------------------
B ----3-0-0h2--------------2-3-5--3r2-5--3r2-0--------------------
G -----------------------4----------------------------------------
D --4-------------------------------------------0h2-0-------------
A ----------------------------------------------------4-2---------
E ----------------------------------------------------------------


e --------------0-7h8--------------------2-3-3--3p2-2-------------
B ----3-0-0h2--------------2-3-5--5-5-5----------------3-0--------
G -----------------------4----------------------------------------
D --4-------------------------------------------------------------
A ----------------------------------------------------------------
E ----------------------------------------------------------------


e ----------------------------------------------------------------
B ----3-0-0h2--2-2-3-5-----2-3-5--3r2-5--3r2-0--------------------
G -------------3-3-4-6---4----------------------------------------
D --4-------------------------------------------4h5r4-2r0---------
A --------------------------------------------------------4-2-----
E ----------------------------------------------------------------


e --9-9-9-9--7-6-7-7h9---10-10--10-9-7-9-9h10---9-9--9-7-6-7-7h9--
B ----------------------------------------------------------------
G ----------------------------------------------------------------
D ----------------------------------------------------------------
A ----------------------------------------------------------------
E ----------------------------------------------------------------


e --7-7--7-6-9-6-6h7----------------------------------------------
B ----------------------------------------------------------------
G ----------------------------------------------------------------
D ----------------------------------------------------------------
A ----------------------------------------------------------------
E ----------------------------------------------------------------


e ----------------------------------------------------------------
B ----3-0-0h2--2-2-3-5-----2-3-5--3r2-5--3r2-0--------------------
G -------------3-3-4-6---4----------------------------------------
D --4-------------------------------------------------------------
A ----------------------------------------------------------------
E ----------------------------------------------------------------


e ----5-2-3----0-3p2p0-----3h5-3-3-5p3p2-2------------------------
B --0--------------------0-----------------3-0--------------------
G ----------------------------------------------------------------
D ----------------------------------------------------------------
A ----------------------------------------------------------------
E ----------------------------------------------------------------


e ----5-2-3----0-3p2p0-----5p3p2p0-0-2----------------------------
B --0-------------------------------------------------------------
G ----------------------------------------------------------------
D ----------------------------------------------------------------
A ----------------------------------------------------------------
E ----------------------------------------------------------------

[ Tab from: http://www.guitartabs.cc/tabs/z/zimmer_hans/nyah_tab_ver_3.html ]
e ------------------------------------3\7-2-3---3-5p3p2p0---7-9---
B ----3-0-1---2r0-0-3-0h2-3-3h5-7---0-----------------------------
G ------------3r0-0-4-0h3-4---------------------------------------
D --4-------------------------------------------------------------
A ----------------------------------------------------------------
E ----------------------------------------------------------------


e --4-6p5p3-6-2---12h14-14-14-12-12-10--------9-10p9p7-9----------
B --------------------------------------7-7-7---------------------
G ----------------------------------------------------------------
D ----------------------------------------------------------------
A ----------------------------------------------------------------
E ----------------------------------------------------------------


e --------2-3p2p0-2--0-3p2p0-0-3p2p0-2----------------------------
B --2-2-2-------------------------------0-2-3-5-3r2-5--3r2-2h3-0--
G ----------------------------------------------------------------
D ----------------------------------------------------------------
A ----------------------------------------------------------------
E ----------------------------------------------------------------


e -----9-10-12-12p10p9-12-10r9-9h10-------------------------------
B --12------------------------------12----------------------------
G ----------------------------------------------------------------
D ----------------------------------------------------------------
A ----------------------------------------------------------------
E ----------------------------------------------------------------


e --9--9--9--9--7-6-7-7h9---10-10-10-10-9-7-9-9h10---------------- \
B --11-11-11-11-------------12-12-12-12---------------------------  
G --11-11-11-11-------------12-12-12-12---------------------------  t
D --11-11-11-11-------------12-12-12-12---------------------------  h
A --9--9--9--9--------------10-10-10-10---------------------------  r
E --9--9--9--9--------------10-10-10-10---------------------------  e
                                                                    e

                                                                    t
e --9--9--9--9--7-6-7-7h9---7-7-7-7-6-9-6-6h7---------------------  i
B --11-11-11-11-------------9-9-9-9-------------------------------  m
G --11-11-11-11-------------9-9-9-9-------------------------------  e
D --11-11-11-11-------------9-9-9-9-------------------------------  s
A --9--9--9--9--------------7-7-7-7-------------------------------  
E --9--9--9--9--------------7-7-7-7------------------------------- /


e ----------------------------------------2h3-3-3--5p3p2-2--------
B ----3-0-0h2---------------2-3-5--5-5-5--------------------3-0---
G ------------------------4---------------------------------------
D --4-------------------------------------------------------------
A ----------------------------------------------------------------
E ----------------------------------------------------------------


e ---------------7-6----------------------------------------------
B ----3-0-0h2--------------2-3-5--3r2-5--3r2-0--------------------
G -----------------------4----------------------------------------
D --4-------------------------------------------0h2-0-------------
A ----------------------------------------------------4-2---------
E ----------------------------------------------------------------


e ----------------------------------------------------------------
B --------------------------------------------------2h3-----------
G ------------------------------------------------------4---------
D ----0------0-2--2-2--4\5-~5--4--0-------0------(4)--------------
A --------4-------------------------2---------4-------------------
E --2---2-------------------------------2---2---------------------


e ----------------------------------------------------------------
B ----------------------------------------------------------------
G ----------------------------------------------------------------
D ----------------------------------------------------------------
A --4-5-7p5-4-7p5-------------------------------------------------
E ----------------6-7---------------------------------------------


e -----------------------------7--------10--------14--------------
B --------------------7--------7--------12--------15--------------
G -----------7--------7--------7--------11--------16--------------
D --9--------9--------9-------------------------------------------
A --9--------9----------------------------------------------------
E --7-------------------------------------------------------------

Comments