Zight - Eternity Chords & Tabs

 

Eternity Chords & Tabs

Zight Chords & Tabs

Version: 1 Type: Tab 0 ratings
1 star 2 stars 3 stars 4 stars 5 stars
comments

Eternity Tab

     |---------------------------------------------|
     |------1-0------3-1------1-0--0h1-0-3-0-------|
clean|----2--------2--------2----------------------|4 times
     |--2--------2--------2------------------------|
     |---------------------------------------------|
     |---------------------------------------------|
[ Tab from: http://www.guitartabs.cc/tabs/z/zight/eternity_tab.html ]
     |-----------------------------------------------------|
     |-----------1-0----------3-1----------1-0-------------|
     |-----------------------------------------------------|
dist.|--2-2-2-2------2-2-2-2------2-2-2-2------------------|4 times
     |--0-0-0-0------0-0-0-0------0-0-0-0----------3-----5-|
     |--0-0-0-0------0-0-0-0------0-0-0-0-------0h3---0h5--|
          P.M.         P.M.         P.M.

     |----0----1----5----3---------|
     |----0----1----5----3---------|
     |----1----2----6----4---------|4 times
     |----2----3----7----5---------|
     |----2----3----7----5---------|
     |----0----1----5----3---------|

Comments