Ziggens - Tim The Dinosaur Chords & Tabs

 

Tim The Dinosaur Chords & Tabs

Ziggens Chords & Tabs

Version: 1 Type: Tab 0 ratings
1 star 2 stars 3 stars 4 stars 5 stars
comments

Tim The Dinosaur Tab

   
i love this song plain and simple. i've pretty much given the chords you need to hear 
song to figure the patterns out though

intro/verse:
e---3---3---3---3---3---4---4---4---4-----3---3-|
b---3---3---3---3---3---2---2---2---2-----5---5-|
g-4-4-4-4-4-4-4-4-4-4-3-3-3-3-3-3-3-3-3-3-3-3-3-|
d-----------------------------------------------|
a-----------------------------------------------|
e-----------------------------------------------|

chorus
e-3-3-3-3-3-|      repteat each chord sixteen times in
b-3-3-5-3-5-|      a swinged eighth note kinda way.
g-4-4-3-4-3-|
d-----------|
a-----------|
e-----------|
[ Tab from: http://www.guitartabs.cc/tabs/z/ziggens/tim_the_dinosaur_tab.html ]
first solo-
e---3---3---3---3---3------0-0h4p0---3---3---3---3-----3---3---3---3---3----|
b---3---3---3---3---3---0-2--2-------5---5---5---5-----3---3---3---3---3----|
g-4-4-4-4-4-4-4-4-4-4-0------0-----3-3-3-3-3-3-3-3-3-4-4-4-4-4-4-4-4-4-4-4--|
d---------------------------------------------------------------------------|
a---------------------------------------------------------------------------|
e---------------------------------------------------------------------------|

second solo
e-5b-3-3---3-15-15\-3-3-5b-3--------------------------------|
b-6b---3-3-3-15-15\-3-3-6b--3---------1-2-3-3-3-3-1------5b-|
g--------3-3-----------------3------0---------------3-0--5b-|
d-------------------------------0h3-------------------------|
a-----------------------------------------------------------|
e-----------------------------3-----------------------------|

song order
intro/verse2x
chorus
first solo
verse2x
chorus
second solo
verse2x
chorus
verse2x
Comments