Ziggens - San Clemente Chords & Tabs

 

San Clemente Chords & Tabs

Ziggens Chords & Tabs

Version: 1 Type: Tab 0 ratings
1 star 2 stars 3 stars 4 stars 5 stars
comments

San Clemente Tab

   
another good song by the ziggens

intro
e-----------------------|
b-7-7-7-5-5-5-----------|
g-7-7-7-5-5-5-----------|
d-7-7-7-5-5-5-5-5-5-5-5-|  repeat 2x and hold last chord second time
a-5-5-5-3-3-3-5-5-5-5-5-|
e-------------3-3-3-3-3-|

second guitar (2nd time)
e--------|
b--------|
g--------|
d--------|
a-2-0--0-|
e----2---|

Verse
e-------------------3-3-3-3-3-----------|
b-7-7-7-7-5-5-5-5-5-3-3-3-3-3-7-7h9p7---| repeat throughout verse
g-7-7-7-7-5-5-5-5-5-4-4-4-4-4-7-7----7--|
d-7-7-7-7-5-5-5-5-5-----------7-------7-|
a---------------------------------------|
e---------------------------------------|
[ Tab from: http://www.guitartabs.cc/tabs/z/ziggens/san_clemente_tab.html ]
chorus 2nd guitar (1st guitar plays verse again during chorus)
e---------|
b---------|
g-7-5---7-|play each chord eight times as eighth notes
d-7-5-5-7-|
a-5-3-5-5-|
e-----3---|

Verse
chorus

Bridge thingy
e-------------|
b-------------|
g-6-6-6-6-7-9-| repeat 4x
d-6-6-6-6-7-9-|
a-4-4-4-4-5-7-|
e-------------|

after the fourth time the bass goes

g-----------------------------------------------------------| repeat 2x
d-----4-4-5-7-5-4\-2-2-3/5-3-2\-----------------------------|
a-12\---------------------------2-2-3/5-3-2---5-3-2-3-5-----|
e--------------------------------------------------------/7-|

second guitar holds this after the bass does it's thing
e-2-
b-3-
g-2-
d-0-
a-0-
e---

verse
chorus 5x
the bass does it's cool thing again and then it ends
e-2--5-5-5-----|
b-3--7-7-7-5---|
g-2--7-7-7-5-7-|
d----------5-7-|
a------------5-|
e--------------|
Comments