Zico Chain - Rohypnol Chords & Tabs

 

Zico Chain Chords & Tabs

Version: 1 Type: Tab 0 ratings
1 star 2 stars 3 stars 4 stars 5 stars
comments

Rohypnol Tab

Song: Rohypnol
Artist: Zico Chain
Album: The Zico Chain

Tabbed by: Gary the Hann
Email: Ckyfan1@hotmail.com

Tuning: Drop C


Intro
D|-----------------------------------------------------------------|
A|-----------------------------------------------------------------|
F|-----------------------------------------------------------------|
C|--12-12-12-12-12/0~--12-12-12-12/0~--12-12-12-12/0~--8-8-7-5-12--|
G|-----------------0~--------------0~--------------0~--8-8-7-5-12--|
C|--12-12-12-12-12/0~--12-12-12-12/0~--12-12-12-12/0~--8-8-7-5-12--|

D|-----------------------------------------------------------------|
A|-----------------------------------------------------------------|
F|-----------------------------------------------------------------|
C|--12-12-12-12-12/0~--12-12-12-12/0~--12-12-12-12/0~--8-8-7-5-12--|
G|-----------------0~--------------0~--------------0~--8-8-7-5-12--|
C|--12-12-12-12-12/0~--12-12-12-12/0~--12-12-12-12/0~--8-8-7-5-12--|


Verse
D|---------------------------------------||-----------|
A|---------------------------------------||-----------|
F|--13-13-13-13-13-13-13^14-13^14--------||-----------|
C|--12-12-12-12-12-12-12----12-----------||--8-8-7-5--|
G|---------------------------------[x3]--||--8-8-7-5--|
C|---------------------------------------||--8-8-7-5--|
[ Tab from: http://www.guitartabs.cc/tabs/z/zico_chain/rohypnol_tab.html ]
D|---------------------------------------||--------|
A|---------------------------------------||--------|
F|--13-13-13-13-13-13-13^14-13^14--------||--------|
C|--12-12-12-12-12-12-12----12-----------||--8~----|
G|---------------------------------[x3]--||--8~----|
C|---------------------------------------||--8~----|


Pre-Chorus
D|-------------------------------------------------|
A|-------------------------------------------------|
F|-------------------------------------------------|
C|--7/8--55-55--7/8--55-55--7/8--55-55--8-8-10-10--|
G|--7/8--55-55--7/8--55-55--7/8--55-55--8-8-10-10--|
C|--7/8--55-55--7/8--55-55--7/8--55-55--8-8-10-10--|


Chorus
D|----------------------------------------------------|
A|----------------------------------------------------|
F|----------------------------------------------------|
C|--1212121212121212-55555555-88888888-7777-10101010--|
G|--1212121212121212-55555555-88888888-7777-10101010--|
C|--1212121212121212-55555555-88888888-7777-10101010--|

D|--------------------------------------------------------||------------------|
A|--------------------------------------------------------||--13^-------------|
F|--------------------------------------------------------||--12^-13~--13~----|
C|--1212121212121212-55555555-88888888--------------------||------12~--12~----|
G|--1212121212121212-55555555-88888888--------------------||------------------|
C|--1212121212121212-55555555-88888888-7^8-7^8-7^8-7^8v/--||------------------|


Bridge
D|-----------------------------------------------|
A|--------------------13-1313-1313---------------|
F|-------13-------13--12-1212-1212-131313131313--|
C|--10^--12--10^--12---------------121212121212--|
G|-----------------------------------------------|
C|-----------------------------------------------|


The outro is just the intro :D Correct me if its wrong but it sounds alright to me ;) enjoy x

www.zicochain.com
Comments