Zetta Bytes - When The Rain Falls Chords & Tabs

 

When The Rain Falls Chords & Tabs

Zetta Bytes Chords & Tabs

Version: 1 Type: Tab 0 ratings
1 star 2 stars 3 stars 4 stars 5 stars
comments

When The Rain Falls Tab

Zetta Bytes - When the Rain Falls
From the movie Pixel Perfect

Tabbed by : Jeff Kingsbury (valueshere@hotmail.com)

CAPO ON 2ND FRET

Intro
e|-----------------0---------------------------------------------------------|
B|-------------------2---------1--------1-----------0------------------------|
G|--1------------------------2---2----2---2----------------------------------|
D|--2--2-2-------2-------------------------------3---------------------------|
A|--3------3---3-----------0-------------------3-----------------------------|
E|----------------------------------3--------1-------------------------------|



e|-----------------------0---------------------------------------------------|
B|--------0------------3---3------------0--------3---------------------------|
G|-------------------0-------0---------------------0--------4----------------|
D|------3----3-----2-----------2------3-------2------------------------------|
A|----3----------3------------------3-------3------------2-------------------|
E|--1-----------------------------1--------------------3---------------------|



e|----------------------0----------------------------------------------------|
B|--------0-----------3---3-----------1--------1--------1--------1-----------|
G|------------------0-------0-------2---2----2---2----2---2----2---2---------|
D|------3---3-----2-----------2----------------------------------------------|
A|----3---------3-----------------0------------------------------------------|
E|--1--------------------------------------3--------1--------0---------------|



e|----------------------0----------------------------------------------------|
B|--------0-----------3---3-----------1--------1--------1--------1-----------|
G|------------------0-------0-------2---2----2---2----2---2----2---2---------|
D|------3---3-----2-----------2----------------------------------------------|
A|----3---------3-----------------0------------------------------------------|
E|--1--------------------------------------3--------1--------0---------------|



e|---------------0-----------------------------------------------------------|
B|--------3--------3---------0-----0-----------------------------------------|
G|------2-2--------2---------------2-----------------------------------------|
D|-----0-------0-----------3-------3-----------------------------------------|
A|-----------------------3---------3-----------------------------------------|
E|---2-------2---------1-----------1-----------------------------------------|


Chords for Chorus (You can't hear them, but if you could, this is what they'd be)
[ Tab from: http://www.guitartabs.cc/tabs/z/zetta_bytes/when_the_rain_falls_tab.html ]
                   |     (repeat this    |
                   |      after chorus)  |
e|------0-------0-------0---0---3---1---0-------0---0---3---1---0---1---1-----|
B|--0---1---0---1---0---1---1---3---1---0---0---1---1---3---1---0---1---1---3-|
G|--2---0---2---0---2---0---2---0---2---0---2---0---2---0---2---0---2---2---2-|
D|--3---2---3---2---3---2---2---0---3---2---3---2---2---0---3---2---3---3---0-|
A|--3---3---3---3---3---3---0---2---3---2---3---3---0---2---3---2---3---3---x-|
E|--1-------1-------1-----------3---1---0---1-----------3---1---0---1---1---2-|


e|--1---3---------------------------------------------------------------------|
B|--1---3---------------------------------------------------------------------|
G|--2---0---------------------------------------------------------------------|
D|--3---0---------------------------------------------------------------------|
A|--3---2---------------------------------------------------------------------|
E|--1---3---------------------------------------------------------------------|


                                x2 then repeat and continue to this part
e|----------------------0-------|---------------------------------------------|
B|--------0-----------3---3-----|------1--------1--------1--------1-----------|
G|------------------0-------0---|----2---2----2---2----2---2----2---2---------|
D|------3---3-----2-----------2-|---------------------------------------------| x2
A|----3---------3---------------|--0------------------------------------------|
E|--1---------------------------|-----------3--------1--------0---------------|



e|---------------0-----------------------------------------------------------|
B|--------3--------3---------0-----0-----------------------------------------|
G|------2-2--------2---------------2-----------------------------------------|
D|-----0-------0-----------3-------3-----------------------------------------|
A|-----------------------3---------3-----------------------------------------|
E|---2-------2---------1-----------1-----------------------------------------|


Back to chorus chords


Bridge chords
e|--1---0---4---3--------------------------------------------------------------|
B|--2---3---4---3--------------------------------------------------------------|
G|--3---3---5---0--------------------------------------------------------------|
D|--3---3---6---0--------------------------------------------------------------|
A|--1---0---6---2--------------------------------------------------------------|
E|----------4---3--------------------------------------------------------------|

Go to chorus again


Outro

e|-----0---0---3---1----|
B|-0---1---1---3---1----|
G|-2---0---2---0---2----|
D|-3---2---2---0---3----|
A|-3---3---0---2---3----|
E|-1-----------3---1----|
Comments