Zen Guerrilla - Empty Heart Chords & Tabs

 

Empty Heart Chords & Tabs

Zen Guerrilla Chords & Tabs

Version: 1 Type: Tab 0 ratings
1 star 2 stars 3 stars 4 stars 5 stars
comments

Empty Heart Tab

K Here goes.....first tab so have patience...its pretty easy and it 
F#$@in rocks....


YOu gotta figure out the rythem...its not hard at all....just listen
to the song...
[ Tab from: http://www.guitartabs.cc/tabs/z/zen_guerrilla/empty_heart_tab.html ]
chorus
e----------------------------
b----------------------------
g----------------7--7-7---5-5
d--7--7-7--5-5---7--7-7---5-5       repeat about 4x's
a--7--7-7--5-5---5--5-5---3-3     
e--5--5-5--3-3---x--x-x---x-x


verse
e-----------------------
b-----------------------
g-----------------------          repeat 4x's
d-----------------------
a--------------5-5-0-3-3
e--5-5-0-3-3-0----------


then back to chorus


questions or comments or changes
email bdybrdr21@hotmail.com

Comments