Zen Guerrilla - Barbed Wire Chords & Tabs

 

Barbed Wire Chords & Tabs

Zen Guerrilla Chords & Tabs

Version: 1 Type: Tab 0 ratings
1 star 2 stars 3 stars 4 stars 5 stars
comments

Barbed Wire Tab

   
Song: Barbed Wire 
Band: Zen Guerrilla
Album: Shadows on The Sun
Tabbed By: Simon 

This is a great song from a little-known subpop band. I've done my best to tab it, but
its my first tab so don't expect it to be perfect. You can hear the song at sub pop's
website: http://www.subpop.com/scripts/main/multimedia.php?key=bandname&value=Zen+Guerrilla
I haven't tabbed the solo, but you can use the 17th fret blues from improv. Solos.
Listen to the song to find where the riffs go etc.
Tuning: Standard (EADGBe) Song is in the key of A (5th fret blues scale)

Intro:
e|--------------------------------------------|
B|--------------------------------------------|
G|------7b~~~~--------------------------------|
D|--------------------------------------------|
A|--------------------------------------------|
E|--------------------------------------------|

Riff 1:
e|----4/5----5--5-----------4/5----5--5-----------------|
B|----4/5----5--5-----------4/5----5--5-----------------|
G|----5/6----6--6-----------5/6----6-6-----------------|
D|----6/7----7--7-------5---6/7----7--7-------5---------|
A|----6/7----7--7---5h7-----6/7----7--7---5h7-----------|
E|----4/5----5--5-----------4/5----5--5-----------------|
[ Tab from: http://www.guitartabs.cc/tabs/z/zen_guerrilla/barbed_wire_tab.html ]
Riff 2:
e|-----------------------------------------------------|
B|-----------------------------------------------------|
G|----------------------5------------------5-----------|
D|----6/7----7--7---5h7----7----7--7---5h7-------------|
A|----4/5----5--5----------5----5--5-------------------|
E|-----------------------------------------------------|

Riff 3:
e|----------------------------|
B|----------------------------|
G|----------------------------|
D|------9----------7----------|
A|------7----------5----------|
E|----------------------------|

Riff 4:
e|--------------------------------------------------------|
B|--------------------------------------------------------|
G|--------------------------------------------------------|
D|----9-9--9-9--9-9-9--9-------9-9--9-9--9-9-9--9---------|
A|----7-7--7-7--7-7-7--7-------7-7--7-7--7-7-7--7---------|
E|--------------------------------------------------------|

My email is volkswagon_42@hotmail.com - comments/improvements/suggestions are more than welcome.

| /  slide up
| \  slide down
| h  hammer-on
| p  pull-off
| ~  vibrato
| +  harmonic
| x  Mute note
| b  full bend
==============================================================================
Comments