Zeke - Telephat Boy Chords & Tabs

 

Telephat Boy Chords & Tabs

Zeke Chords & Tabs

Version: 2 Type: Bass Tab 0 ratings
1 star 2 stars 3 stars 4 stars 5 stars
comments

Telephat Boy Bass Tab

Zeke
Song:      Telephat Boy
Album:     Kicked In The Teeth
Tabbed by: BassD
                                      >=play a couple of time
G|----------------------------|
D|----------------------------|
A|-1>-4-6>---1>---------------|
E|--------------4>------------|

G|---------------------------------------|
D|---------------------------------------|
A|-1>-4>--1>-6-4>--1>-6-4>---------------|
E|-------------------------2>------------|

G|----------------------------|
D|----------------------------|
A|-1>-4-6>---1>---------------|
E|--------------4>------------|
[ Tab from: http://www.guitartabs.cc/tabs/z/zeke/telephat_boy_btab_ver_2.html ]
G|-------------------------------------|
D|-------------------------------------|
A|-1>-4>--1>-6-4>--1>-6-4>-------------|
E|-------------------------2>----------|

G|------------------------------------|
D|------------------------------------|
A|-1>-4-6>---1>-4-6>------------------|
E|------------------------------------|

G|-----------------------------------------|
D|----2-4>----2-4>----2-4>-----------------|
A|-4>------4>------4>------4>-6>-----------|
E|-----------------------------------------|

End
G|------------------------------------------|
D|------------------------------------------|
A|-1>-4-6>--1>-4-6>--1>-4-6>--1>------------|
E|------------------------------------------|

Email me if you have questions=rancid_ska@hotmail.com

Comments