Zeds Dead - Eyes On Fire Chords & Tabs

 

Eyes On Fire Chords & Tabs

Zeds Dead Chords & Tabs

Version: 1 Type: Chords 0 ratings
1 star 2 stars 3 stars 4 stars 5 stars
comments

Eyes On Fire Chords

   
First tab ever. So go easy on me. 
This is a mix between the Blue foundation version and the Zeds Dead remix. 
Obviously without the dubstep.
All Am7s are optional.
Capo in completely optional. (if you use one put it wherever suits you)
And the harmonic 'ahhh's at the end are hard to count. I know.
Enjoy! :D

Intro:
e|------------------------------------------------------------------------------|
B|------------------------------------------------------------------------------|
G|------------------------------------------------------------------------------|
D|-------2----0------------------0---2------------------------------------------|
A|--0-----------------3----3--------------0---------0--0------------3-----0-----|
E|------------------------------------------------------------3---3-------------|
     Am
I'll seek you out
F
Flay you alive
Am        Am7                       F
 One more word and you won't survive
    Am
And I'm not scared
   F
Of your stolen power
Am           Am7                  F
 I see right through you any hour


        Am
I won't soothe your pain
        F
I won't ease your strain
          Am
You'll be waiting in vain
      F
I got nothing for you to gain


    Am
I'm taking it slow
F
Feeding my flame
Am             Am7              F
 Shuffling the cards of your game
    Am
And just in time
F
In the right place
Am          Am7           F
 Suddenly I will play my ace
[ Tab from: http://www.guitartabs.cc/tabs/z/zeds_dead/eyes_on_fire_crd.html ]
 
       Am
I won't soothe your pain
        F
I won't ease your strain
          Am
You'll be waiting in vain
      F
I got nothing for you to gain


Am
Eyes on fire
     F
Your spine is ablaze
Am           Am7           F
 Felling any foe with my gaze
    Am
And just in time
F
In the right place
Am         Am7            F        
 Steadily emerging with grace

This is the outro/tabbed part of the next verse.
e|------------------------------------------------------------------------------------------|
B|---------------------------------------------------------------------------------1--------|
G|--2-------0---2---0------------------------------------------2---2----0---0---------2-----|
D|-------------------------2---0----------0----2--------------------------------------------|
A|------------------------------------3-------------0---------------------------------------|
E|------------------------------------------------------------------------------------------|


Am       Am7         F            Am           Am7            F
Ahhhh ah ah ah ah ah ah ah ah ahh, felling any foe with my gaze
Am       Am7         F            Am           Am7            F
Ahhhh ah ah ah ah ah ah ah ah ahh,  Steadily emerging with grace

Am       Am7         F            Am           Am7            F
Ahhhh ah ah ah ah ah ah ah ah ahh, felling any foe with my gaze
Am       Am7         F            Am           Am7            F
Ahhhh ah ah ah ah ah ah ah ah ahh,  Steadily emerging with grace
Am to finish.

Hope you liked it! :D Comment any ocrrections :)
Comments