Zed - Renegade Fighter Chords & Tabs

 

Renegade Fighter Chords & Tabs

Zed Chords & Tabs

Version: 3 Type: Tab 0 ratings
1 star 2 stars 3 stars 4 stars 5 stars
comments

Renegade Fighter Tab

   
Song:   Renegrade Fighter
Artist: Zed

This NZ band is about to release in the US
The starts easy but catchy and the resdt just easy

Intro
[ Tab from: http://www.guitartabs.cc/tabs/z/zed/renegade_fighter_tab_ver_3.html ]
E -0-0-7-10-8-8-5-3-5-2-3-0-0-7-10-8-8-5-3- 
B -----------------------------------------
G -----------------------------------------  Strum C then D
D -----------------------------------------
A -----------------------------------------
D -----------------------------------------

E -----------------------
B -----0-3-1-------------
G -----------2-2-0-2---0-  Strum C then D
D -2-2---------------4---
A -----------------------
D -----------------------

Chorus

E			Am7
Now that it's clear you don't have to worry at all
E			Am7		Bm
Now that it's clear you can do, what you like...

Chorus


Enjoy

Luke
Comments