Zed - Renegade Fighter Chords & Tabs

 

Renegade Fighter Chords & Tabs

Zed Chords & Tabs

Version: 1 Type: Bass Tab 0 ratings
1 star 2 stars 3 stars 4 stars 5 stars
comments

Renegade Fighter Bass Tab

Song: 	Renegade Fighter
Artist:	Zed
Playon:	4-String
Author: ReDact207

This is one of my last-minute jobs I did on my PC speakers;
I doubt this is exactly how the song goes to the last note, 
but you can hopefully get a pretty good idea here though.

Comments? Suggestions? redact@linkinpark.2ndmail.com


Intro/Verse(Variation 1)
G --------------------------------
D --------------------------------
A 7-7--7-5-5--5--------------5----
E --------------5-5--5-7-8-8------

(Can i walk here beside you...)
G --------------------------------
D --------------------------------
A 14\------------5-5--------------
E ----5-5--5-8-8------------------

Verse(Variation 2)
G --------------------------------
D --------------------------------
A 7-7--7-5-5-7---------------5----
E ---------------5-5--578--78-----
[ Tab from: http://www.guitartabs.cc/tabs/z/zed/renegade_fighter_btab.html ]
Verse(Variation 3)
G --------------------------------
D --------------------------------
A 7-7--7-5-5--5-------------------
E --------------5-5--/14---------

Chorus(main)
G --------------------------------
D --------------------------------
A 7-7--7-5-5--5---------------5---
E --------------5-5--5-7-8-8------

*Chorus(see footnote)
G ----789--------789--------------
D ------------------------7------- 
A 7-7------5-5-------------------5
E -------------------5-5-----7-8--

Bridge
G --------------------------------
D --------------------------------
A 14/7-7--7-5-5-5--5--------------
E -------------------5-5--5-5--5--

G --------------------------------
D --------------------------------
A 7-7--7-5-5--5---------9---------
E --------------5-5--5------------* I think my PC speakers were stuffing me
around on this one. I kept hearing this 
faintly, and so I decided to tab it anyway.
If it isn't in the song, just ignore it.
Comments