Zebrahead - Waste Of Mind Chords & Tabs

 

Waste Of Mind Chords & Tabs

Zebrahead Chords & Tabs

Version: 1 Type: Tab 0 ratings
1 star 2 stars 3 stars 4 stars 5 stars
comments

Waste Of Mind Tab

   
Zebrahead
Waste of Mind Tabs
by Ryan

Waste of Mind - Standard Tuning

Riff 1
==========
(finger tapped...i saw Goldtoof do it in concert)
1)-------------17----------------17----------------17----
2)----------------17----------------17----------------17-
3)-14-14-13-14-------14-14-13-14-------14-14-13-14-------
4)-------------------------------------------------------
5)-------------------------------------------------------
6)-------------------------------------------------------

1)-------14-13-12-
2)----14-14-13-12-
3)-14-14-14-13-12-
4)----------------
5)----------------
6)----------------

Riff 2
===========
1)-----------------
2)-----------------
3)-----------------
4)-----------------
5)-----------------
6)-0-5-0-4-0-3-0-2-

Chorus
============
1)-----------------
2)-----------------
3)-7-7-7-7-9-9-9-9-
4)-7-7-7-7-9-9-9-9-
5)-5-5-5-5-7-7-7-7-
6)-----------------
[ Tab from: http://www.guitartabs.cc/tabs/z/zebrahead/waste_of_mind_tab.html ]
Interlude a
============
1)-17171717171717171719171717171717171719191919191919-
2)----------------------------------------------------
3)----------------------------------------------------
4)----------------------------------------------------
5)----------------------------------------------------
6)----------------------------------------------------

Interlude b
===========
guitar 1
1)-171717171717171717----------------------------------
2)-------------------171515151515151515151717171717717-
3)-----------------------------------------------------
4)-----------------------------------------------------
5)-----------------------------------------------------
6)-----------------------------------------------------

guitar 2
1)-----------------------------------------------------------
2)-14-14-14--------13-15-13-------------------------17-15-14-
3)-14-14-14--14-16----------14----------14-13-13-13----------
4)-14-14-14--------------------14-14-14----------------------
5)------------------------------------------------------------
6)-----------------------------------------------------------
Comments