Zebrahead - Walk Away Chords & Tabs

 

Walk Away Chords & Tabs

Zebrahead Chords & Tabs

Version: 1 Type: Bass Tab 0 ratings
1 star 2 stars 3 stars 4 stars 5 stars
comments

Walk Away Bass Tab

   
Standard Tuning: E,A,D,G

Chorus
G-------------------------------------------------I
D-------------222-------------------222-----------I
A---222-----------000---0-222-----------000---0---I
E-------00000---------4-------00000---------4-----I

Verse
G-----7-9---77---7-9---77---7-9---77---9---10-----I
D---0-----0----0-----0----0-----0----7---8----8---I
A-------------------------------------------------I
E-------------------------------------------------I

Pick Up
G---16/4---I
D----------I
A----------I
E----------I
[ Tab from: http://www.guitartabs.cc/tabs/z/zebrahead/walk_away_btab.html ]
Bridge
G-----------------------------------------7-------7-------7-------7---I
D---------7-------7-------7-------7---9-9-----9-9-----9-9-----9-9-----I
A-----9-9-----9-9-----9-9-----9-9---7-------7-------7-------7---------I
E---7-------7-------7-------7-----------------------------------------I

Pick Up #2
G------------I
D------------I
A---2----2---I
E------------I

Chorus         x2
Verse          x3
Chorus         x2
Verse          x3
Chorus         x2
Pause (Reggae Part)
Pick Up        x1
Bridge         x2
Pick Up #2     x1
Chorus         x2
Pause
Verse          x3
Chorus         x4
Comments