Zebrahead - Runaway Chords & Tabs

 

Runaway Chords & Tabs

Zebrahead Chords & Tabs

Version: 1 Type: Bass Tab 0 ratings
1 star 2 stars 3 stars 4 stars 5 stars
comments

Runaway Bass Tab

Verse #1
G---------------------------------------------------11-------11-------11-------11-------11----11------I
D---11-------11-------11-------11-------11----11----12-12-12-12-12-12-12-12-12-12-12-12-12-12-12-12---I
A---12-12-12-12-12-12-12-12-12-12-12-12-12-12-12-12---------------------------------------------------I
E-----------------------------------------------------------------------------------------------------I

Verse #2
G-------------------------------------------------------------------------------I
D--------------------000000----000000---------------------000000----0000--------I
A---0000000000000000--------44--------44-0000000000000000--------44------4444---I
E-------------------------------------------------------------------------------I

Verse #3
G------------------------------------------I
D-----------00-0--------------00-0---------I
A----------------44-4--------------4-4-4---I
E---22-22-2-----------22-22-2--------------I

Chorus  #1
G-------------------------6-----6-----2-----2-------------4---2---1-----------------------I
D------------22222222-444---444---000---000------------22---2---2---2-44444444-00000000---I
A---00000000----------------------------------00000000------------------------------------I
E-----------------------------------------------------------------------------------------I
[ Tab from: http://www.guitartabs.cc/tabs/z/zebrahead/runaway_btab.html ]
Bridge
G-----------------------------------------------------------------I
D---------22222-44444-00000----------22222222-44444444-00000000---I
A---00000-------------------00000000------------------------------I
E-----------------------------------------------------------------I

Bridge #2
G------------------------------------------------------------------------------------------------I
D-----------------00-0------------------------00-0-------------------------00000000--------------I
A----------------------0-44-4----------------------0-44-4---------------------------44444444-----I
E---22-2-0-22-2-0-------------0-22-2-0-22-2-0-------------22-2-0-22-2-0--0-----------------------I

Chorus #2 
G----------------6-----6-----2-----2-------------4---2---1-----------------------I
D---22222222-444---444---000---000------------22---2---2---2-44444444-00000000---I
A------------------------------------00000000------------------------------------I
E--------------------------------------------------------------------------------I

Ending
G--------------------------------------------------I
D---------22222-44444-00000-------22222-44444-0~---I
A---00000-------------------00000------------------I
E--------------------------------------------------I

Verse #1      x3
Verse #2      x1
Verse #3      x1
Chorus #1     x1
Verse #1      x2
Verse #2      x1
Verse #3      x1
Chorus #1     x1
Bridge        x1
Bridge #2     x1
Chorus #2     x1
Chorus #1     x1
Ending        x1
Comments