Zebrahead - Playmate Of The Year Chords & Tabs

 

Playmate Of The Year Chords & Tabs

Zebrahead Chords & Tabs

Version: 5 Type: Tab 0 ratings
1 star 2 stars 3 stars 4 stars 5 stars
comments

Playmate Of The Year Tab

   
INTRO:
Guitar 1 (lead)
e---0--4--0--4--0--7--0--7--0--5--0--5--0--2--0--2---|
B----------------------------------------------------|
G----------------------------------------------------| (x2)
D----------------------------------------------------|
A----------------------------------------------------|
E----------------------------------------------------|

Guitar 2 (rhythm)
   E5      A5       B5
e------------------------------------|
B------------------------------------|
G--9--9------------------------------| (x2)
D--9--9----7--7-----9-9-9-9-9-9-9-9--|
A--7--7----7--7-----9-9-9-9-9-9-9-9--|
E----------5--5-----7-7-7-7-7-7-7-7--|

VERSE 1:
No Guitars

PRE-CHORUS: Same as INTRO, except x4

CHORUS: 
[ Tab from: http://www.guitartabs.cc/tabs/z/zebrahead/playmate_of_the_year_tab_ver_5.html ]
   E5        B5        A5        B5
e------------------------------------------|
B------------------------------------------|
G--99999999--------------------------------|
D--99999999--99999999--77777777--99999999--| (x2)
A--77777777--99999999--77777777--99999999--|
E------------77777777--55555555--77777777--|

   A5        B5
e---------------|
B---------------|
G---------------|
D--77777777--9--|
A--77777777--9--|
E--55555555--7--|


VERSE 2:
Still no guitars

**Part where Ali is rapping:
(only 1 guitar)
e------------------------------------------|
B------------------------------------------|
G------------------------------------------|
D------------------------------------------| (x1)
A--7-------9--7--6-----6-4-6-7---6--4--2---|
E------------------------------------------|

PRE-CHORUS

CHORUS

SOLO: don't know it

PRECHORUS (only play x2)

FINAL CHORUS:
   E5        B5        A5        B5
e------------------------------------------|
B------------------------------------------|
G--99999999--------------------------------|
D--99999999--99999999--77777777--99999999--| (x2)
A--77777777--99999999--77777777--99999999--|
E------------77777777--55555555--77777777--|

   
ENDING:
Play INTRO
THEN
End on:
   E5
e-------|
B-------|
G--9-9--|
D--9-9--|
A--7-7--|
E-------|
Comments