Zebrahead - Playmate Of The Year Chords & Tabs

 

Playmate Of The Year Chords & Tabs

Zebrahead Chords & Tabs

Version: 2 Type: Tab 0 ratings
1 star 2 stars 3 stars 4 stars 5 stars
comments

Playmate Of The Year Tab

This is guitar's tab of Intro, Solo, Chorus !!!!!

This tab is written by Alex on 21.07 2001(c) if there are some errors please write me: alex@garzola.it


PLAYMATE OF THE YEAR!
(Zebrahead)

INTRO

e |--4--4--7--7--5--5-----------|
B |---5--5--5--5--5--5--7-4-5---|
G |-----------------------------|
D |-----------------------------|
A |-----------------------------|
E |-----------------------------|

CHORUS
[ Tab from: http://www.guitartabs.cc/tabs/z/zebrahead/playmate_of_the_year_tab_ver_2.html ]
e |-----------------------------|
B |-----------------------------|
G |--9--------------------------|
D |--9---7---9---7--------------|
A |--7---7---9---7--------------|
E |--0---5---7---5--------------|

SOLO

e |---4--4------------------------------------|
B |--------7-5-7-4--4-7-4-5-2--2-5-2-4--2-0---|
G |-------------------------------------------|
D |-------------------------------------------|
A |-------------------------------------------|
E |-------------------------------------------|

THE SONG IS:

INTRO 2x

BASSO 4x

INTRO 4x

CHORUS 5x

INTRO 2x

BASSO 4x

PARLATO 2x

INTRO 4x

CHORUS 5x

SOLO 2X

INTRO 2x

CHORUS 8x

INTRO+CHORUS 2x
Comments