Zebrahead - Over The Edge Chords & Tabs

 

Over The Edge Chords & Tabs

Zebrahead Chords & Tabs

Version: 2 Type: Tab 0 ratings
1 star 2 stars 3 stars 4 stars 5 stars
comments

Over The Edge Tab

   
-------------------------------------------------------------------------------
			     Over The Edge - Zebrahead
-------------------------------------------------------------------------------
Tabbed by: 73h l337 0n3
Email:shroomz_are_baad@hotmail.com (email me for corrections)

Tuning: Drop D (DADGBe)
Intro 
Guitar I          Repeat x2
e|------10------------10-----------10--------------------------------------------|
B|7-8-----8-7-8-7-8-----8-7-8-7-8-----8-7-8--------------------------------------|
G|----7-------------7-------------7----------------------------------------------|
D|-------------------------------------------------------------------------------|
A|-------------------------------------------------------------------------------|
D|-------------------------------------------------------------------------------|
Guitar II   
e|-------------------------------------------------------------------------------|
B|-------------------------------------------------------------------------------|
G|-------------------------------------------------------------------------------|
D|------------------------------0-0-0-0----7-7-7-5-5-5-0-0-0-0---7-7-7-5-5-------|
A|----------------------/////---0-0-0-0----7-7-7-5-5-5-0-0-0-0---7-7-7-5-5-------|
D|----------------------/////---0-0-0-0----7-7-7-5-5-5-0-0-0-0---7-7-7-5-5-------|

Verse 
Guitar I
e|--------------------------------------------------------------------------|
B|--------------------------------------------------------------------------|
G|--------(fade back in)----------------------------------------------------|
D|0(kill)--0----------------------------------------------------------------|
A|0(vol)---0----------------------------------------------------------------|
D|0--------0----------------------------------------------------------------|
Guitar II
e|-------------------------------------------------------------------------------|
B|-------------------------------------------------------------------------------|
G|-----------------|--------Repeat2x--------------|------------------------------|
D|-000055550000555500005555000055550000555522225555------------------------------|
A|-000055550000555500005555000055550000555522225555------------------------------|
D|-000055550000555500005555000055550000555522225555------------------------------|
 pm................................................

Pre-chorus
Guitar I
e|10tr.--------------------------------------------------------------------------|
B|-------------------------------------------------------------------------------|
G|-------------------------------------------------------------------------------|
D|-------------------------------------------------------------------------------|
A|-------------------------------------------------------------------------------|
D|-------------------------------------------------------------------------------|
Guitar II
e|-------------------------------------------------------------------------------|
B|-------------------------------------------------------------------------------|
G|-------------------------------------------------------------------------------|
D|0---0-0-2---2-2-5---5-5-7---7-7-0---0-0-2---2-2-5---5-5-7---xxxxxx-------------|
A|0---0-0-2---2-2-5---5-5-7---7-7-0---0-0-2---2-2-5---5-5-7---xxxxxx-------------|
D|0---0-0-2---2-2-5---5-5-7---7-7-0---0-0-2---2-2-5---5-5-7---xxxxxx-------------|

Chorus I
Guitar I          Repeat 8x
e|------10------------10-----------10--------------------------------------------|
B|7-8-----8-7-8-7-8-----8-7-8-7-8-----8-7-8--------------------------------------|
G|----7-------------7-------------7----------------------------------------------|
D|-------------------------------------------------------------------------------|
A|-------------------------------------------------------------------------------|
D|-------------------------------------------------------------------------------|
Guitar II
e|-------------------------------------------------------------------------------|
B||---------------Repeat1x---------------------------|---------------------------|
G|7-7-7-7-7-7-7-7----------------------------------------------------------------|
D|7-7-7-7-7-7-7-7-7-7-7-7-7-7-7-7-0-2---2-2xxxx5---5-5-5-5-5-5-------------------|
A|5-5-5-5-5-5-5-5-7-7-7-7-7-7-7-7-0-2---2-2xxxx5---5-5-5-5-5-5-------------------|
D|----------------7-7-7-7-7-7-7-7-0-2---2-2xxxx5---5-5-5-5-5-5-------------------|

After Chorus
Guitar I (nothing)
Guitar II
e|-------------------------------------------------------------------------------|
B|-------------------------------------------------------------------------------|
G|-------------------------------------------------------------------------------|
D|0-0-0-0----7-7-7-5-5-5-0-0-0-0---7-7-7-5-5-------------------------------------|
A|0-0-0-0----7-7-7-5-5-5-0-0-0-0---7-7-7-5-5-------------------------------------|
D|0-0-0-0----7-7-7-5-5-5-0-0-0-0---7-7-7-5-5-------------------------------------|

Verse II
Guitar I
e|--------------------------------------------------------------------------|
B|--------------------------------------------------------------------------|
G|--------(fade back in)----------------------------------------------------|
D|0(kill)--0----------------------------------------------------------------|
A|0(vol)---0----------------------------------------------------------------|
D|0--------0----------------------------------------------------------------|
Guitar II
e|-------------------------------------------------------------------------------|
B|-------------------------------------------------------------------------------|
G|-----------------|--------Repeat2x--------------|------------------------------|
D|-000055550000555500005555000055550000555522225555------------------------------|
A|-000055550000555500005555000055550000555522225555------------------------------|
D|-000055550000555500005555000055550000555522225555------------------------------|
 pm................................................
[ Tab from: http://www.guitartabs.cc/tabs/z/zebrahead/over_the_edge_tab_ver_2.html ]
Pre-chorus
Guitar I
e|10tr.--------------------------------------------------------------------------|
G|-------------------------------------------------------------------------------|
D|-------------------------------------------------------------------------------|
A|-------------------------------------------------------------------------------|
D|-------------------------------------------------------------------------------|
Guitar II
e|-------------------------------------------------------------------------------|
B|-------------------------------------------------------------------------------|
G|-------------------------------------------------------------------------------|
D|0---0-0-2---2-2-5---5-5-7---7-7-0---0-0-2---2-2-5---5-5-7---xxxxxx-------------|
A|0---0-0-2---2-2-5---5-5-7---7-7-0---0-0-2---2-2-5---5-5-7---xxxxxx-------------|
D|0---0-0-2---2-2-5---5-5-7---7-7-0---0-0-2---2-2-5---5-5-7---xxxxxx-------------|

Chorus II
Guitar I          Repeat 8x
e|------10------------10-----------10--------------------------------------------|
B|7-8-----8-7-8-7-8-----8-7-8-7-8-----8-7-8--------------------------------------|
G|----7-------------7-------------7----------------------------------------------|
D|-------------------------------------------------------------------------------|
A|-------------------------------------------------------------------------------|
D|-------------------------------------------------------------------------------|
Guitar II
e|-------------------------------------------------------------------------------|
B||---------------Repeat1x---------------------------|---------------------------|
G|7-7-7-7-7-7-7-7----------------------------------------------------------------|
D|7-7-7-7-7-7-7-7-7-7-7-7-7-7-7-7-0-2---2-2xxxx5---5-5-5-5-5-5-------------------|
A|5-5-5-5-5-5-5-5-7-7-7-7-7-7-7-7-0-2---2-2xxxx5---5-5-5-5-5-5-------------------|
D|----------------7-7-7-7-7-7-7-7-0-2---2-2xxxx5---5-5-5-5-5-5-------------------|

Interlude
Guitar I  Repeat 2x (play when sustained note starts)
e|------10------------10---------------------------------------------------------|
B|7-8-----8-7-8-7-8-----8-7-8----------------------------------------------------|
G|----7-------------7------------------------------------------------------------|
D|-------------------------------------------------------------------------------|
A|-------------------------------------------------------------------------------|
D|-------------------------------------------------------------------------------|
Guitar II
e|-------------------------------------------------------------------------------|
B|-------------------------------------------------------------------------------|
G||-----------------Repeat4x--------------------------------|----sustain---------|
D|0-0--0-0--0-0--5-5-5-5-5-5-5-5-0-0--0-0--0-0--7-7-7-5-5-5-5-5-(5)--------------|
A|0-0--0-0--0-0--5-5-5-5-5-5-5-5-0-0--0-0--0-0--7-7-7-5-5-5-5-5-(5)--------------|
D|0-0--0-0--0-0--5-5-5-5-5-5-5-5-0-0--0-0--0-0--7-7-7-5-5-5-5-5-(5)--------------|

Outro
Guitar I          Repeat 16x
e|------10------------10-----------10--------------------------------------------|
B|7-8-----8-7-8-7-8-----8-7-8-7-8-----8-7-8--------------------------------------|
G|----7-------------7-------------7----------------------------------------------|
D|-------------------------------------------------------------------------------|
A|-------------------------------------------------------------------------------|
D|-------------------------------------------------------------------------------|
Guitar II
e|-------------------------------------------------------------------------------|
B||---------------Repeat2x---------------------------|---------------------------|
G|7-7-7-7-7-7-7-7--------------------------------------7-7-7-7-7-7-7-7-----------|
D|7-7-7-7-7-7-7-7-7-7-7-7-7-7-7-7-0-2---2-2xxxx5---5-5-7-7-7-7-7-7-7-7-----------|
A|5-5-5-5-5-5-5-5-7-7-7-7-7-7-7-7-0-2---2-2xxxx5---5-5-5-5-5-5-5-5-5-5-----------|
D|----------------7-7-7-7-7-7-7-7-0-2---2-2xxxx5---5-5---------------------------|

e|-------------------------------------------------------------------------------|
B|-------------------------------------------------------------------------------|
G|------------------------------------------------7-7-7-7-7-7-7-7----------------|
D|7-7-7-7-7-7-7-7-2-2-2-2-2-2-2-2-5-5-5-5-5-5-5-5-7-7-7-7-7-7-7-7-7-7-7-7-7-7-7-7|
A|7-7-7-7-7-7-7-7-2-2-2-2-2-2-2-2-5-5-5-5-5-5-5-5-5-5-5-5-5-5-5-5-7-7-7-7-7-7-7-7|
D|7-7-7-7-7-7-7-7-2-2-2-2-2-2-2-2-5-5-5-5-5-5-5-5-----------------7-7-7-7-7-7-7-7|

e|-------------------------------------------------------------------------------|
B|-------------------------------------------------------------------------------|
G|-------------------------------------------------------------------------------|
D|0-2---2-2xxxx5-5-5-5-5-5-0-0-0-0----7-7-7-5-5-5-0-0-0-0---7-7-7-5-5------------|
A|0-2---2-2xxxx5-5-5-5-5-5-0-0-0-0----7-7-7-5-5-5-0-0-0-0---7-7-7-5-5------------|
D|0-2---2-2xxxx5-5-5-5-5-5-0-0-0-0----7-7-7-5-5-5-0-0-0-0---7-7-7-5-5------------|
Guitar I
e|--------------------------------------------------------------------------|
B|--------------------------------------------------------------------------|
G|--------(fade back in)----------------------------------------------------|
D|0(kill)--0----------------------------------------------------------------|
A|0(vol)---0----------------------------------------------------------------|
D|0--------0----------------------------------------------------------------|
Guitar II
e|------------------10/----------------------------------------------------------|
B|-------------------------------------------------------------------------------|
G|-------------------------------------------------------------------------------|
D|-0000555500005555--------------------------------------------------------------|
A|-0000555500005555--------------------------------------------------------------|
D|-0000555500005555--------------------------------------------------------------|
 pm................
Comments