Zebrahead - Move On Chords & Tabs

 

Move On Chords & Tabs

Zebrahead Chords & Tabs

Version: 1 Type: Bass Tab 0 ratings
1 star 2 stars 3 stars 4 stars 5 stars
comments

Move On Bass Tab

   
Standard Tuning: E,A,D,G

Riff #1
G---7-7-5-4-------------5-5-4-----------------I
D-----------7-----4-5-7-------7-5-------4-5---I
A-------------7-7-----------------5-5-7-------I
E---------------------------------------------I

Chorus
G--------------0----------------0--------4/0-----0---2-0-----I
D-----------------------2---2-3---2-22-2-----0-4---0-----4---I
A--------2---2---3-3-33---3----------------------------------I
E---3-33---3-------------------------------------------------I

Verse
G--------44-22-11-----------------I
D---2-22---------------22-00------I
A-----------------0-00-------44---I
E---------------------------------I
[ Tab from: http://www.guitartabs.cc/tabs/z/zebrahead/move_on_btab.html ]
Verse #2
G-------------------------------------------0-0-------------0-0-2-2---I
D-------2-2-3-3-2-2-----2-2-3-3-2-2-0-0-4-4-----4-4-0-0-4-4-----------I
A---3-3-------------3-3-----------------------------------------------I
E---------------------------------------------------------------------I

Bridge
G-----------------------------------------I
D-----------------------------------------I
A-------3-2-----3-2-----3-2-----3-2-------I
E---3-3-----1-1-----3-3-----1-1-----3-3---I

Riff #1      x1
Chorus       x2
Verse #1     x3
Verse #2     x1
Chorus       x3
Verse #1     x3
Verse #2     x1
Chorus       x3
Bridge       x2
Riff #1      x1
Chorus       x1
Verse #1     x3
Verse #2     x1
Chorus       x2
Bridge       x2  At end, End with 1 G natural instead of 2 and hold the note.
Comments