Zebrahead - Jagoff Chords & Tabs

 

Jagoff Chords & Tabs

Zebrahead Chords & Tabs

Version: 1 Type: Tab 0 ratings
1 star 2 stars 3 stars 4 stars 5 stars
comments

Jagoff Tab

Zebrahead
Waste of Mind tabs
by Ryan

Jagoff- Standard tuning

Riff 1
=========	
1)-9--9--x-x-12-12-12-12-12-12----12-13-12-13-
2)-9--9--x-x-12-12-12-12-12-12----12-12-12-12-
3)-10-10-x-x----------------------------------
4)-11-11-x-x----------------------------------
5)--------------------------------------------
6)--------------------------------------------
[ Tab from: http://www.guitartabs.cc/tabs/z/zebrahead/jagoff_tab.html ]
Riff 2
==========
1)-2-2-2-2-2-2-2-2-1-0-0-0-0-0-0-1-
2)-2-2-2-2-2-2-2-2-1-0-0-0-0-0-0-1-
3)-3-3-3-3-3-3-3-3-2-1-1-1-1-1-1-2-
4)-4-4-4-4-4-4-4-4-3-2-2-2-2-2-2-3-
5)---------------------------------
6)---------------------------------

Chorus
========
1)-------------------------------------
2)-------------------------------------
3)-------------------------------------
4)-4-4-4-4-4-4-4-3-2-2-2-2-2-2-2-2-2-3-
5)-4-4-4-4-4-4-4-3-2-2-2-2-2-2-2-2-2-3-
6)-2-2-2-2-2-2-2-1-0-0-0-0-0-0-0-0-0-1-
Comments