Zebrahead - Jag Off Chords & Tabs

 

Jag Off Chords & Tabs

Zebrahead Chords & Tabs

Version: 2 Type: Bass Tab 0 ratings
1 star 2 stars 3 stars 4 stars 5 stars
comments

Jag Off Bass Tab

Song     : Jag Off
Band     : Zebrahead
Album    : Waste Of Mind
Tabbed By: Justin Reynolds (jxstylez@aol.com)

Riff 1:
=======

G:------------11---------
D:---11----------9h10h11- Listen to CD
A:------8-9-9------------ to get timing
E:-9---------------------
B:-----------------------
[ Tab from: http://www.guitartabs.cc/tabs/z/zebrahead/jag_off_btab_ver_2.html ]
'Hey kid where you runnin' off to?':
====================================

G:-------------------------------
D:-------------------------------
A:-9--x-9-9-9-8-7-6--x-6-6-6-7-8-
E:-------------------------------
B:-------------------------------

Bridge:
=======

G:-------------------------
D:-------------------------
A:---------9-11-9-11--9-11-
E:-7/9-9-------------------
B:-------------------------
Comments