Zebrahead - I Am Chords & Tabs

 

I Am Chords & Tabs

Zebrahead Chords & Tabs

Version: 1 Type: Bass Tab 0 ratings
1 star 2 stars 3 stars 4 stars 5 stars
comments

I Am Bass Tab

Band- Zebrahead
Song- I am
Album- Playmate of the Year
Tabbed By- Jesse Krupocin (JK976783@aol.com) 
email with suggestions or requests

Main Riff (Rap Part)
G  :--------------------------------|
D  :---9----------------------------|
A  :7-----8---------7---8-----------|
E  :----------10--55-566-6----------|
[ Tab from: http://www.guitartabs.cc/tabs/z/zebrahead/i_am_btab.html ]
Fill Between Main Riff and Chorus 
G  :----------------------------------|
D  :----------------------------------|
A  :7-7-7-10-10-7-7---7-7-7-10-10-7-7-|
E  :----------------------------------|

Chorus ("I am who I am....")
G  :-------------------------------|
D  :-------------------------------|
A  :77--10-------------------------|
E  :----------5/13\5---5575-5575---|

Fill "Watch the beat drop..." (Starts at 1:43)
G  :-------------|
D  :-------------|
A  :77-77-77-77--|
E  :-------------|

Techno Part (Starts at 2:00)
G  :-----------------------|
D  :-----------------------|
A  :7--5787-----7--5--32---|
E  :-----------------------|

Comments