Zebrahead - Hell Yeah Chords & Tabs

 

Zebrahead Chords & Tabs

Version: 1 Type: Tab 0 ratings
1 star 2 stars 3 stars 4 stars 5 stars
comments

Hell Yeah Tab

   
Zebrahead - Hell Yeah!
Album - Phoenix
Tuning - Half Step Down (Eb,Ab,Db,Gb,Bb,Eb)


This sounds pretty much right, not perfect but it's taken me quite a bit of time so 
leave comments/thanks if you found this useful :)

Don't have the time to do the solo but most if it's here.
Any additions or corrections welcome!

Intro (lead)

Eb)-----------------------------------------------------------7-7----|
Bb)-------------------------------5-5-7-8-----5-7-8----5-7-8-----8-7-|
Gb)-----9-9-9-9------------------------------------------------------|
Db)-----x-x-x-x-------xxxx-------------------------------------------|
Ab)-----7-7-7-7-------xxxx-------------------------------------------|
Eb)-------------------xxxx-------------------------------------------|
                  "Hell yeah!''


Eb)--------------------------------------------------|
Bb)--5-5-7-8-----5-7-8----5-7-8-7-5-4----------------|
Gb)--------------------------------------------------|
Db)--------------------------------------------------|
Ab)--------------------------------------------------|
Eb)--------------------------------------------------|


Intro (Rhythm)
Eb)---------------------------------------------------------------|
Bb)---------------------------------------------------------------|
Gb)----------------------------------5-5-x-x-x--------------------|
Db)--2-2-x-x-x-2-2-2-7-7-x-x-x-7-7-7-5-5-x-x-x-5-5-5-5-5-5-5-5----| x2
Ab)--2-2-x-x-x-2-2-2-7-7-x-x-x-7-7-7-3-3-x-x-x-5-5-5-5-5-5-5-5----|
Eb)--0-0-x-x-x-0-0-0-5-5-x-x-x-5-5-5-----------3-3-3-3-3-3-3-3----|

Verse

(Lead)
Eb)---------------------------------------------------------------|
Bb)---------------------------------------------------------------|
Gb)---------------------------------------------------------------|
Db)--------------------------x3 ----------------------------------| x2
Ab)-------2222----------------------55555555-33333333-------------|
Eb)--0000------3333-5555------------------------------------------|

Rhythm
(Comes in second time round)
[ Tab from: http://www.guitartabs.cc/tabs/z/zebrahead/hell_yeah_tab.html ]
Eb)---------------------------------------------------------------|
Bb)---------------------------------------------------------------|
Gb)---------------------------------------------------------------|
Db)--------4444--------------x3 -----77777777-55555555------------| x1
Ab)--2222--2222-5555-7777------------55555555-33333333------------|
Eb)--0000-------3333-5555-----------------------------------------|
    |_________________________________________________|
                            PM

Bridge/Pre-chorus


Eb)---------------------------------------------------------------|
Bb)---------------------------------------------------------------|
Gb)-------------------7-7-7--5-5-5-5------------------------------|
Db)--2-2----2-2-------x-x-x--x-x-x-x------------------------------| x3
Ab)--2-2----2-2-------5-5-5--3-3-3-3------------------------------|
Eb)--0-0----0-0---------------------------------------------------|
    "Hell Yeah! Hell Yeah! We Want control!"

Eb)---------------------------------------------------------------|
Bb)---------------------------------------------------------------|
Gb)---4-4-4-4-4-4-4-4--5-5-5-5-5-5-5-5----------------------------|
Db)---4-4-4-4-4-4-4-4--5-5-5-5-5-5-5-5----------------------------| x1
Ab)---2-2-2-2-2-2-2-2--3-3-3-3-3-3-3-3----------------------------|
Eb)---------------------------------------------------------------|
    "And We're picking up speed like a rolling stone!"


Chorus

Eb)----------------------------------------------------------------------|
Bb)----------------------------------------------------------------------|
Gb)-------------------4-4-4-4-4-4-4-4--7-7-7-7-7-7-7-7-7-----------------|
Db)--2-2-2-2-2-2-2-2--4-4-4-4-4-4-4-4--7-7-7-7-7-7-7-7-7-7-7-7-7-7-7-7-7-| x2
Ab)--2-2-2-2-2-2-2-2--2-2-2-2-2-2-2-2--5-5-5-5-5-5-5-5-5-7-7-7-7-7-7-7-7-|
Eb)--0-0-0-0-0-0-0-0-------------------------------------5-5-5-5-5-5-5-5-|


Repeat Intro x 2

Repeat Verse x 2

Repeat Bridge/Pre-chorus x 1

Repeat Chorus x 2

Repeat the chorus chords over the solo, Maybe someone with more time and talent can work 
out ;)

Repeat Chorus x 2

Repeat Intro Riff x2

End on Eb
Comments