Zebrahead - Fly Daze Chords & Tabs

 

Fly Daze Chords & Tabs

Zebrahead Chords & Tabs

Version: 1 Type: Bass Tab 0 ratings
1 star 2 stars 3 stars 4 stars 5 stars
comments

Fly Daze Bass Tab

4 bars rest

main riff, learn the timing you'll play it a lot in the song

g--------------7---|--------------4---|
d------------------|------------------|
a-5--55-5---55---5-|-2--22-2---22---2-|
e------------------|------------------|

g------------------|------------------|
d--------------9---|--------------7---|
a-7--77-7---77---7-|------------------|
e------------------|-5--55-5---55---5-|

verse (ali's part)

once again there is some funky timing
[ Tab from: http://www.guitartabs.cc/tabs/z/zebrahead/fly_daze_btab.html ]
g--------7---------|----4-------------|
d----7----------7--|------------------|
a-5-----5---5------|-2------2-2--4--5-|
e------------------|------------------|

g------------------|------------------|
d----9--------9----|------------------|
a-7-----7-7--------|----7--------4--7-|
e------------------|-5-----5--7-------|

guitar solo part (2:56)

g-------------7---|-------------------|
d---------------9-|-------------------|
a-5-----5---5-----|-------------------|
e-----------------|-5-----5---5---5---|

g-----------------|-------------------|
d-----------------|-------------------|
a-----------------|--------------7----|
e-3-3-3-3-3-3-3-3-|-5-----5---5-----5-|
Comments