Zebrahead - Check Chords & Tabs

 

Check Chords & Tabs

Zebrahead Chords & Tabs

Version: 1 Type: Tab 0 ratings
1 star 2 stars 3 stars 4 stars 5 stars
comments

Check Tab

Artist: Zebrahead
Song: Check
Album: Waste of Mind
E-Mail: beefynerd@www.com
Tabbed by Jeremy Burgess

This song is the first song Zebrahead ever wrote, and its pretty simple.  Here it is.

Verses:

E|----------
B|----------
G|----------
D|-5-4-4----
A|-5-4-4----
E|-3-2-2----

Chorus:

E|--------------------
B|--------------------
G|-------5-5-3-3------
D|-3-3-3-5-5-3-3------
A|-3-3-3-3-3-1-1------
E|-1-1-1--------------

Post-chorus:
[ Tab from: http://www.guitartabs.cc/tabs/z/zebrahead/check_tab.html ]
E|-----------------------------------------------------------------------------------
B|-----------------------------------------------------------------------------------
G|-----------------------------------------------------------------------------------
D|-2-2----2-2----2-2----2-2----2-2--------2-2-------2-2-------2-2--------------------
A|-2-2----2-2----2-2----2-2----2-2---3----2-2---3---2-2---3---2-2---3----------------
E|-0-0----0-0----0-0----0-0----0-0-1---1--0-0-1---1-0-0-1---1-0-0-1---1--------------

Solo (part 1):

E|-8-8-8-8-6---13-13-13-13-13---8-8-8-8-6-------------
B|-8-8-8-8-6---13-13-13-13-13---8-8-8-8-6-------------
G|-5-5-5-5-3---10-10-10-10-10---5-5-5-5-3-------------
D|----------------------------------------------------
A|----------------------------------------------------
E|----------------------------------------------------

Solo (part 2, 1st time):

E|-8-8-8-8-8-8-8-8-8-8-8-8-8-8----------
B|-8-8-8-8-8-8-8-8-8-8-8-8-8-8----------
G|-5-5-5-5-5-5-5-5-5-5-5-5-5-5----------
D|--------------------------------------
A|--------------------------------------
E|--------------------------------------

Solo (part 2, 2nd time):

E|---------------
B|---------------
G|---------------
D|-3-3---3-3-----
A|-3-3---3-3-----
E|-1-1---1-1-----

Thats the whole song.  E-mail me if you have any questions.

Comments