Zebrahead - Check Chords & Tabs

 

Check Chords & Tabs

Zebrahead Chords & Tabs

Version: 2 Type: Bass Tab 0 ratings
1 star 2 stars 3 stars 4 stars 5 stars
comments

Check Bass Tab

Intro/ Verse
G-------------------|
D-------------5-5---|
A-----4-4-3-3-------|
E-2-2---------------|


	Chorus
 "Take a chance kid..."
G--------------------------------|
D--------------------------------|
A-------3-3-1-1----------1-1-1---|
E-1-1-1---------0--1-1-1---------|


	Bridge 1
G--------------------------------------------------------------|
D--------------------------------------------------------------|
A--------------------------------3--------3--------3--------3--|
E-0-0--0-0--0-0--0-0-(2)/--0-0-2-2--0-0-2-2--0-0-2-2--0-0-2-2--|


	Bridge 2
 Play 3 times   4th time
G------------|----------------|
D------------|----------------|    then play the first part
A----7-------|----7----8------|    3 more times, then play
E-1/6--1-0---|-1/6--6/7--8----|
[ Tab from: http://www.guitartabs.cc/tabs/z/zebrahead/check_btab_ver_2.html ]
G-----------|
D-----------|	back to chorus
A-----------|
E-0-0--0-0--|


	3rd verse
  1st half no bass, although you could play this if you wanted
G-------------------|
D-------------------|		then slide up to G on the D string
A-------------------|		and play the verse as usual
E-2--3-2--3-2--3-2--|

G-----|--------------------|
D-/5-|--------------5-5----|
A-----|------4-4-3-3-------|
E-----|--2-2---------------|


	Outtro
G-----------------|
D-----------------|	play chorus as usual until the last bar,
A--------3-3-1-1--|	where you leave off one Bb and let
E--1-1-1----------|	ring

	The song goes:  Intro
			Verse
			Chorus
			Verse
			Chorus (only 4 measures)
			Bridge 1
			Bridge 2
			Chorus (only 4 measures)
			Verse (with changes)
			Bridge 1
			Outtro
Comments