Zebrahead - All I Need Chords & Tabs

 

All I Need Chords & Tabs

Zebrahead Chords & Tabs

Version: 1 Type: Tab 0 ratings
1 star 2 stars 3 stars 4 stars 5 stars
comments

All I Need Tab

   
Zebrahead
The Yellow tabs
by Ryan

All I Need - Standard Tuning

Intro a
=========
(Have one pickup on and the other off. Then toggle between
pickups while finger-tapping these chords)
1)-------------
2)-------------
3)-------------
4)-7-7-7-7-8-5-
5)-7-7-7-7-8-5-
6)-5-5-5-5-6-3-

Intro b
==========
1)-------------
2)-------------
3)-----------6-
4)-8-8-8-8-4-6-
5)-8-8-8-8-4-4-
6)-6-6-6-6-2---

Riff 1
==========
1)-------------
2)-------------
3)-------------
4)-8-8-8-8-9-6-
5)-8-8-8-8-9-6-
6)-6-6-6-6-7-4-

Riff 2
==========
1)-----------------
2)-6h7p6h7p6h7p6h7-
3)-----------------
4)-----------------
5)-----------------
6)-----------------

Riff 3
===========
1)---------
2)---------
3)---------
4)-8-8-7-6-
5)-8-8-7-6-
6)-6-6-5-4-

Chorus
===========
1)----------------------
2)----------------------
3)-----6---8------------
4)-8---6---8---3-3--3-3-
5)-8---4---6---3-3--3-3-
6)-6-----------1-1--1-1-
[ Tab from: http://www.guitartabs.cc/tabs/z/zebrahead/all_i_need_tab.html ]
Bridge 1
===========
1)-----------
2)-----------
3)-----------
4)-8-8-7-6-3-
5)-8-8-7-6-3-
6)-6-6-5-4-1-

Fill 1
==========
1)----------
2)----------
3)----------
4)-3-3--3-3-
5)-3-3--3-3-
6)-1-1--1-1-

Fill 2
==========
1)----------2-
2)----------2-
3)----------2-
4)-3-3--3-3-4-
5)-3-3--3-3-4-
6)-1-1--1-1-2-

Fill 3
==========
1)-/17--15h17-14h15-12h14-10h12-9h10-7h9-5h7-5---
2)-----------------------------------------------
3)-----------------------------------------------
4)-----------------------------------------------
5)-----------------------------------------------
6)-----------------------------------------------

Song order
==========
Intro a x 8
Intro b x 2
riff 1  x 8
riff 2  x 4
riff 3  x 1
riff 1  x 4
chorus  x 1
riff 1  x 4
riff 2  x 4
riff 3  x 1
riff 1  x 4
chorus  x 1
bridge 1x 4
riff 3  x 4
fill 1  x 1
riff 3  x 4
fill 2  x 4
fill 3  x 1
riff 2  x 4
riff 3  x 1
riff 1  x 4
chorus  x 2
riff 1  x 3
riff 3  x 1
Comments