Zaunpfahl - Tote Tanzen Keinen Pogo Chords & Tabs

 

Tote Tanzen Keinen Pogo Chords & Tabs

Zaunpfahl Chords & Tabs

Version: 1 Type: Tab 0 ratings
1 star 2 stars 3 stars 4 stars 5 stars
comments

Tote Tanzen Keinen Pogo Tab

Zaunpfahl - Tote tanzen keinen Pogo

No Tabs around here by Zaunpfahl (German Punk Band for all who dont know them...),
so I decided to post some...

Tabbed by: TheOneAndOnlyGEZ
E-Mail: Gez.Rulez@gmx.at

Tuning: Standard(EADGBe)

M - Palm Mute

Intro/Bridge:

e:|----------------------------|
B:|----------------------------|
G:|--5--7-7-7-7--8--7-7-7-7----| x2
D:|--5--7-7-7-7--8--7-7-7-7----| 
A:|--3--5-5-5-5--6--5-5-5-5----|
E:|----------------------------|

e:|----------------------------|
B:|----------------------------|
G:|--3-3-3-3--5-5-5-5----------|
D:|--3-3-3-3--5-5-5-5----------|
A:|--1-1-1-1--3-3-3-3----------|
E:|----------------------------|

e:|----------------------------|
B:|----------------------------|
G:|--5--7-7-7-7--8--7-7-7-7----|
D:|--5--7-7-7-7--8--7-7-7-7----| 
A:|--3--5-5-5-5--6--5-5-5-5----|
E:|----------------------------|

e:|----------------------------|
B:|----------------------------|
G:|--3-3-3-3--5-5-5-5----------|
D:|--3-3-3-3--5-5-5-5--7-------|
A:|--1-1-1-1--3-3-3-3--7-------|
E:|--------------------5-------|

Verse:
[ Tab from: http://www.guitartabs.cc/tabs/z/zaunpfahl/tote_tanzen_keinen_pogo_tab.html ]
e:|----------------------------|----------------------------| 
B:|----------------------------|----------------------------|
G:|--7-7-7-7-7--7-7-7-7-7------|--3-3-3-3-3--5-5-5-5-5------|
D:|--7-7-7-7-7--7-7-7-7-7--x2--|--3-3-3-3-3--5-5-5-5-5------|
A:|--5-5-5-5-5--5-5-5-5-5------|--1-1-1-1-1--3-3-3-3-3------|
E:|----------------------------|----------------------------|           
       M M        M M               M M        M M                           \
                                                                              \
                                1st Time:                    2nd Time:         \  x2
e:|----------------------------|----------------------------|---------|        / 
B:|----------------------------|----------------------------|---------|       /
G:|--7-7-7-7-7--7-7-7-7-7------|--3------(3)--5-----(5)-----|---------|      /
D:|--7-7-7-7-7--7-7-7-7-7------|--3------(3)--5-----(5)-----|--7------|
A:|--5-5-5-5-5--5-5-5-5-5------|--1------(1)--3-----(3)-----|--7------|
E:|----------------------------|----------------------------|--5------|
       M M        M M          

1st Refrain:

e:|------------------------------|
B:|------------------------------|
G:|--7-7----3-3------------------|
D:|--7-7-x4-3-3-x4-5-5----7-7----|
A:|--5-5----1-1----5-5-x4-7-7-x4-|
E:|----------------3-3----5-5----|
     M      M      M      M

2nd Refrain:

e:|---------------------------|
B:|---------------------------|
G:|--7--------3---------------|
D:|--7--------3--------5------|
A:|--5--------1--------5------|
E:|--------------------3------|

3rd Refrain:

e:|---------------------------|
B:|---------------------------|
G:|--7----3-------------------|
D:|--7----3----5----7---------|
A:|--5----1----5----7---------|
E:|------------3----5---------|


Song Order:

Intro
Verse x2
1st Refrain
Bridge
Verse
2nd Refrain
3rd Refrain
Comments