Zaunpfahl - Subkultur Chords & Tabs

 

Subkultur Chords & Tabs

Zaunpfahl Chords & Tabs

Version: 1 Type: Tab 0 ratings
1 star 2 stars 3 stars 4 stars 5 stars
comments

Subkultur Tab

Zaunpfahl - Subkultur

M - Palm Mute

Intro:

e:|----------------------------|
B:|----------------------------|
G:|----------------------------|
D:|--9-------------------------|
B:|--9-------------------------|
E:|--7---scratch---------------|

e:|------------------------|
B:|------------------------|
G:|------------------------|
D:|--9-9-9-12-12-12-14-14--|   x3
B:|--9-9-9-12-12-12-14-14--|
E:|--7-7-7-10-10-10-12-12--|

e:|----------------------------|
B:|----------------------------|
G:|----------------------------|
D:|--7-7-7-7-7-7-7-7-----------|
B:|--7-7-7-7-7-7-7-7-----------|
E:|--5-5-5-5-5-5-5-5-----------|
     M M M M M M M M

Verse:
[ Tab from: http://www.guitartabs.cc/tabs/z/zaunpfahl/subkultur_tab.html ]
e:|------------------------|
B:|------------------------|
G:|------------------------|
D:|--9-9-9-12-12-12-14-14--|   x3
B:|--9-9-9-12-12-12-14-14--|
E:|--7-7-7-10-10-10-12-12--|
     M M M M   M  M  M  M
e:|----------------------------|
B:|----------------------------|
G:|----------------------------|
D:|--7-7-7-7-7-7-7-7-----------|
B:|--7-7-7-7-7-7-7-7-----------|
E:|--5-5-5-5-5-5-5-5-----------|
     M M M M M M M M

Chorus:

e:|----------------------------|
B:|----------------------------|
G:|----------------------------|
D:|--9/5-5-11-11--7--7-7-------|
B:|--9/5-5-11-11--7--7-7-------|
E:|--7/3-3-9--9---5--5-5-------|



Tabbed by Gez
gez.rulez@gmx.at
Comments