Zappa Frank - Camarillo Brillo Chords & Tabs

 

Camarillo Brillo Chords & Tabs

Zappa Frank Chords & Tabs

Version: 1 Type: Tab 0 ratings
1 star 2 stars 3 stars 4 stars 5 stars
comments

Camarillo Brillo Tab

#----------------------------------PLEASE NOTE---------------------------------#
#This file is the author's own work and represents their interpretation of the #
#song. You may only use this file for private study, scholarship, or research. #
#------------------------------------------------------------------------------#

CAMARILLO BRILLO

Words & Music by Frank Zappa

Album: Over-Nite Sensation



Intro

(^) Slide Up  (\) Slide Down  (h) Hammer On  (p) Pull Off  (b) Bend

E----------------------5--5--5----
B----------------------5--5--5----
G----------------------6--6--6----
D----------------------7--7--7----
A--------7--7---9--7---7--7--7----
E---7h9-------9--------5--5--5----

E----------------------7--7--5----
B----------------------7--7--5----
G----------------------8--8--6----
D----------------------9--9--7----
A--------7--7---9--7---9--9--7----
E---7h9-------9--------7--7--5----
[ Tab from: http://www.guitartabs.cc/tabs/z/zappa_frank/camarillo_brillo_tab.html ]
E----------------------5--5--5----
B----------------------5--5--5----
G----------------------6--6--6----
D----------------------7--7--7----
A--------7--7---9--7---7--7--7----
E---7h9-------9--------5--5--5----

E----------------------2---------------------------
B----------------------2---------------------------
G----------------------2---------------------------
D----------------------4---------------------------
A--------7--7---9--7---4---------9^11--11--11--9---
E---7h9-------9--------2---------------------------



* The G#m's are optional  (heard it on a live version, liked it)
* After the A's, walk down to the F#m   (SN BASS)  A-G#-F#



Chorus

Repeat  second verse
Verse End RIff
E-----------------------------------------------------------
B-----------------------------------------------------------
G-----------------------------------------------------------
D------------------4-4--7-7--4-4----------------------------
A--------4-4--7-7-----------------7-7--4-4------------------
E---5-5-----------------------------------------------------
Comments