Zao - Skin Like Winter Chords & Tabs

 

Skin Like Winter Chords & Tabs

Zao Chords & Tabs

Version: 3 Type: Tab 0 ratings
1 star 2 stars 3 stars 4 stars 5 stars
comments

Skin Like Winter Tab

Tuning
CGCFAD


Zao

Skin Like Winter


Intro
                                           To ashes...
D|-|-----------------|----------------|----------------|
A|-|-----------------|----------------|----------------|
F|-|-----------------|----------------|----------------|
C|-|-2-5-5-2-5-2-2-5-|-<--repeat 3x's-|-2-5-5-2-5--2---|
G|-|-2-5-5-2-5-2-2-5-|----------------|-2-5-5-2-5--2---|
C|-|-2-5-5-2-5-2-2-5-|----------------|-2-5-5-2-5--2---|


Verse
   Dust to dust, ashes to ashes to ashes to ashes
D|-------------|-----------------|----------------|-----
A|-------------|-----------------|----------------|-----
F|---------5---|-----------------|----------------|-----
C|-0----0--5-3-|-0-3-3-0-3-0-0-3-|-<--repeat 3x's-|-3-0-
G|-0----0--3-3-|-0-3-3-0-3-0-0-3-|----------------|-3-0-
C|-0----0----3-|-0-3-3-0-3-0-0-3-|----------------|-3-0-

D|-------------|-----------------|----------------|-----
A|-------------|-----------------|----------------|-----
F|---------5---|-----------------|----------------|-----
C|-0----0--5-3-|-0-3-3-0-3-0-0-3-|-<--repeat 3x's-|-3-0-
G|-0----0--3-3-|-0-3-3-0-3-0-0-3-|----------------|-3-0-
C|-0----0----3-|-0-3-3-0-3-0-0-3-|----------------|-3-0-

D|-------------|-----------------|----------------|-----
A|-------------|-----------------|----------------|-----
F|---------5---|-----------------|----------------|-----
C|-0----0--5-3-|-0-3-3-0-3-0-0-3-|-<--repeat 3x's-|-3-0-
G|-0----0--3-3-|-0-3-3-0-3-0-0-3-|----------------|-3-0-
C|-0----0----3-|-0-3-3-0-3-0-0-3-|----------------|-3-0-

Guitar One
D|------------------------------------------------------
A|------------------------------------------------------
F|------------------------------------------------------
C|-----1-0-------1-0-------1-0-------1-0----repeat 2x's-
G|-2-1-------2-1-------2-1-------2-1--------------------
C|------------------------------------------------------
[ Tab from: http://www.guitartabs.cc/tabs/z/zao/skin_like_winter_tab_ver_3.html ]
Guitar Two
D|------------------------------------------------------
A|------------------------------------------------------
F|------------------------------------------------------
C|-0----------------------------------------------------
G|-0----------------------------------------------------
C|-0----------------------------------------------------

D|------------------------------------------------------
A|------------------------------------------------------
F|------------------------------------------------------
C|-0-0-0-----0-0-0-----0-0-0-----0-0-0------------------
G|-0-0-0-----0-0-0-----0-0-0-----0-0-0------------------
C|-0-0-0-----0-0-0-----0-0-0-----0-0-0------------------
   |PM|>>>>>>>>>>>>>>>>>>>>>>>>>>>>>>>

Both Guitars
D|--------12-11-----------------------------------------
A|------------------------------------------------------
F|------------------------------------------------------
C|-0-0-0------------------repeat 16x's------------------
G|-0-0-0------------------------------------------------
C|-0-0-0------------------------------------------------
   |PM|>

D|------------------------------------------------------
A|------------------------------------------------------
F|------------------------------------------------------
C|-0-0-0-0--------0-0-0-0------------repeat 2x's--------
G|-0-0-0-0--0~~~--0-0-0-0--1~~~-------------------------
C|-0-0-0-0--------0-0-0-0-------------------------------

D|------------------------------------------------------
A|------------------------------------------------------
F|------------------------------------------------------
C|-------------------repeat until "good night kiss"-----
G|-------------5----------------------------------------
C|-0-/8-7--0--------------------------------------------
              |PH|

The rest of the song is just
D|------------------------------------------------------
A|------------------------------------------------------
F|------------------------------------------------------
C|-0----------------------------------------------------
G|-0----------------------------------------------------
C|-0----------------------------------------------------

in a pattern, so its really easy to figure out...have fun!
Comments