Zao - Skin Like Winter Chords & Tabs

 

Skin Like Winter Chords & Tabs

Zao Chords & Tabs

Version: 1 Type: Tab 0 ratings
1 star 2 stars 3 stars 4 stars 5 stars
comments

Skin Like Winter Tab

   
Skin Like Winter
Zao
Liberate te ex Inferis

Transcribed by: BJ Woodward(Sk8ing_woody@hotmail.com)
Dropped "C" Tuning

D|----------------------|
A|----------------------|
F|----------------------|
C|--2--4-4--2-4--2-2-4--|
G|--2--4-4--2-4--2-2-4--|
C|--2--4-4--2-4--2-2-4--|

D|-----------------------------------------|
A|-----------------------------------------|
F|-------5---------------------------5-----|
C|--0-0--5-3-0-3-3--0-3-0-0--3--0-0--5--3--|
G|--0-0--3-3-0-3-3--0-3-0-0--3--0-0--3--3--|
C|--0-0----3-0-3-3--0-3-0-0--3--0-0-----3--|

D|------------------|
A|------------------|
F|------------------|
C|------------------|
G|------------------|
C|---9--8---13--12--|

D|-------------------------------------------------------|
A|-------------------------------------------------------|
F|-------------------------------------------------------|
C|------------------0*-0*-0*-------------------0*-0*-0*--|
G|------------------0*-0*-0*-------------------0*-0*-0*--|
C|--9--8---13--12---0*-0*-0*---9--8---13--12---0*-0*-0*--|
[ Tab from: http://www.guitartabs.cc/tabs/z/zao/skin_like_winter_tab.html ]
D|--------------12-11---------------------12-11--|
A|-----------------------------------------------|
F|-----------------------------------------------|
C|--0*-0*-0*-------------------0*-0*-0*----------|
G|--0*-0*-0*-------------------0*-0*-0*----------|
C|--0*-0*-0*-------------------0*-0*-0*----------|

D|-------------------------------|
A|-------------------------------|
F|-------------7-------------5---|
C|--0-0-0-0-0--7--0-0-0-0-0--5---|
G|--0-0-0-0-0--5--0-0-0-0-0--3---|
C|--0-0-0-0-0-----0-0-0-0-0------|

D|----------------------------------------------|
A|----------------------------------------------|
F|----------------------------------------------|
C|----------------------------------------------|
G|----------------------------------------------|
C|--0---7-6---0----12v--------------------------|
 
Right here there are 2 guitars playing.

Guitar 1:  Play this sometimes   And sometimes this.
D|--------------------|--------------------------|
A|--------------------|--------------------------|
F|--------------------|--------------------------|
C|--0---7-6---0---11^-|-0---7-6---0---12v--------|
G|--0---7-6---0-------|-0---7-6---0--------------|
C|--0---7-6---0-------|-0---7-6---0--------------|

Guitar 2:

D|------------------------|
A|------------------------|
F|------------------------|
C|-0---7-6---0--3--2------|
G|-0---7-6---0--3--2------|
C|-0---7-6---0--3--2------|


	
At the end Russ is just playing the 3 thickest strings open and palm muted.						
Key:				
^= Bend				
v= Vibrate string(s)			
*= Palm mute				
h= Hammer				
p= Pulloff
Comments