Zao - Savannah Chords & Tabs

 

Savannah Chords & Tabs

Zao Chords & Tabs

Version: 1 Type: Bass Tab 0 ratings
1 star 2 stars 3 stars 4 stars 5 stars
comments

Savannah Bass Tab

Standard Tuning

Riff 1: 
G|-----------------------------------------------| 
D|-----------------------------------------------| (2x) 
A|-----------------------------------------------| 
E|-1-1--0-0----1-1--0-0----1-1--0-0----1-1--0-0--| 

Riff 2: (00:38) 
G|------------| 
D|------------| (4x) 
A|--------5~--| 
E|-0-0-0------| 

Riff 3: 
G|-----------------| 
D|-----------------| (8x) 
A|-------------6/--| 
E|-7--0--8--0------| 

Pre-Chorus:
G|-------------------| 
D|-------------------| (8x) 
A|-------------------| 
E|-0-0-0-0--0-0-0-0--| 
[ Tab from: http://www.guitartabs.cc/tabs/z/zao/savannah_btab.html ]
(01:17) 
G|-------------| 
D|-------------| (4x) 
A|-------------| 
E|-0--0--0--0--| 

G|-7--10-7-8-7--7-7-7-8-7--| 
D|-------------------------| (4x) 
A|-------------------------| 
E|-------------------------| 

(01:35) Then: 
G|-------------|-----|------| 
D|-------------|(8x)-|------| 
A|-------------|-----|--5~--| 
E|-0--0--0--0--|-----|------| 

Transition 
G|------------------| 
D|------------------| (4x) 
A|------------------| 
E|-7-6-7-0--7-6-7-0-| 

G|---------------------| 
D|---------------------| (8x) 
A|-------------------5-| 
E|-7-6-7-0--7-6-7-0----| 

Outro
G|-------------------| 
D|-------------------| 
A|-------------------| 
E|-0-0-0-0--0-0-0-0--|
Comments