Zao - Ravage Ritual Chords & Tabs

 

Ravage Ritual Chords & Tabs

Zao Chords & Tabs

Version: 2 Type: Tab 0 ratings
1 star 2 stars 3 stars 4 stars 5 stars
comments

Ravage Ritual Tab

Zao
Ravage Ritual
Where Blood and Fire Bring Rest
Transcribed by: BJ Woodward(sk8ing_woody@hotmail.com)

Dropped "D" tuning (DADGBE)

Guitar 1:
E|-----------------------------------------------------|
B|-----------------------------------------------------|
G|-----------------------------------------------------|
D|---10--8--8--7--5--7--8--7--5--7--8--7--5--7--8--7---|
A|-----------------------------------------------------|
D|-----------------------------------------------------|

Guitar 2:
E|-------------------------------|
B|-------------------------------|
G|-------------------------------|
D|--0*-0*-0*-0*--1--1*-1*-1*--0--|
A|--0*-0*-0*-0*--1--1*-1*-1*--0--|
D|--0*-0*-0*-0*--1--1*-1*-1*--0--|

Guitar 1:
E|----------------------|
B|----------------------|
G|-----7----------------|
D|--0--7--6--1----------|
A|--0--5--6--1----------|
D|--0-----6--1----------|

Guitar 1: (playing with guitar 2)
E|---------------------------|
B|---------------------------|
G|---------------------------|
D|--0--7--6--2--5--2--3--0---|
A|---------------------------|
D|---------------------------|

Then do this once:
E|---------------------------|
B|---------------------------|
G|-----7--6--2--5--2--3--0---|
D|-0-------------------------|
A|---------------------------|
D|---------------------------|

Then back to this:
E|---------------------------|
B|---------------------------|
G|---------------------------|
D|--0--7--6--2--5--2--3--0---|
A|---------------------------|
D|---------------------------|
[ Tab from: http://www.guitartabs.cc/tabs/z/zao/ravage_ritual_tab_ver_2.html ]
Guitar 2:
E|--------------------------------|
B|--------------------------------|
G|--------------------------------|
D|--0*---0*-0*-0*---0*---0*-0*-0*-|
A|--0*---0*-0*-0*---0*---0*-0*-0*-|
D|--0*---0*-0*-0*---0*---0*-0*-0*-|

Then this once:
E|----------------------|
B|----------------------|
G|----------------------|
D|---0*-0*-0*-0*---10^--|
A|---0*-0*-0*-0*--------|
D|---0*-0*-0*-0*--------|

Guitar 1 plays this a few times:
E|---------------------------------------|
B|---------------------------------------|
G|-------------------3--------3----------|
D|--0*-0*-7---0*-0*--3----3-2-3-0-3-2----|
A|--0*-0*-7---0*-0*--1----3-2-1-0-3-2----|
D|--0*-0*-7---0*-0*-------3-2---0-3-2----|

Then this:
E|----------------------|
B|----------------------|
G|-----7----------------|
D|--0--7--6--1----------|
A|--0--5--6--1----------|
D|--0-----6--1----------|

Then:
E|---------------------------------|
B|---------------------------------|
G|-----7---------------------------|
D|--0--7--6--1---7-7-7-7-7-7-------|
A|--0--5--6--1---------------------|
D|--0-----6--1---------------------|

Guitar 1: (really fast)
E|----------------------------------|
B|----------------------------------|
G|----------------------------------|
D|-12--10--8--7--5--7--8--7--10--8--|
A|----------------------------------|
D|----------------------------------|
 Guitar 2:
E|--------------------------------|
B|--------------------------------|
G|--------------------------------|
D|--0*---0*-0*-0*---0*---0*-0*-0*-|
A|--0*---0*-0*-0*---0*---0*-0*-0*-|
D|--0*---0*-0*-0*---0*---0*-0*-0*-|
Comments