Zao - Psalm Of The City Of The Dead Chords & Tabs

 

Psalm Of The City Of The Dead Chords & Tabs

Zao Chords & Tabs

Version: 1 Type: Tab 0 ratings
1 star 2 stars 3 stars 4 stars 5 stars
comments

Psalm Of The City Of The Dead Tab

   
Zao
Psalm of the City of the Dead
The Funeral of God

(C G C F A D)

Main bass riff

f|----------------------------|----------------------------|
c|--3----3----3----3----2---5-|--3----3----3----3----2---5-|
g|----------------------------|----------------------------|
c|----0-0--0-0--0-0--0-0--0---|----0-0--0-0--0-0--0-0--0---|

f|----------------------------|----------------------------| 4x
c|--2----2----2----2----0---0-|--2----2----2----2----0---2-|
g|----------------------------|----------------------------|
c|----0-0--0-0--0-0--0-0--0---|----0-0--0-0--0-0--0-0--0---|

Chords played on 3rd and 4th time of bass riff
               2x
d|-------|------|-------------------|
a|.------|-----.|-------------------|
f|--10---|--9---|--7-7-7-7-7-7-7-7--|
c|--x----|--x---|--7-7-7-7-7-7-7-7--|
g|.-8----|--7--.|--5-5-5-5-5-5-5-5--|
c|-------|------|-------------------|

Main riff/Verse
  Gtr 1&2 2x
d|---------------------------------|---------------------------------|
a|---------------------------------|---------------------------------|
f|---------------------------------|---------------------------------|
c|--3333-3333-2255-3333-3333-2255--|--2222-2222-0000-2222-2222-0022--|
g|---------------------------------|---------------------------------|
c|---------------------------------|---------------------------------|

Harmony
  Gtr 2 2x, while Gtr 1 does above riff ^ 2x
d|---------------------------------|---------------------------------|
a|---------------------------------|---------------------------------|
f|---------------------------------|---------------------------------|
c|--7777-7777-5588-7777-7777-5588--|--5555-5555-3333-5555-5555-3355--|
g|---------------------------------|---------------------------------|
c|---------------------------------|---------------------------------|

Chorus One (listen to song for strumming, on both chorus')
Part 1
d|---------------------------------|--------------------------------|
a|---------------------------------|--------------------------------|
f|-10\7-7-7--7-710\7-7-7/12-12-12--|--9\6-6-6--6-6-9\6-6-6--6-6-6/--|
c|---------------------------------|--------------------------------|
g|--8\5-5-5--5-5-8\5-5-5/10-10-10--|--7\4-4-4--4-4-7\4-4-4--4-4-4/--|
c|---------------------------------|--------------------------------|

Part 2
d|-----------------------------------------------------------|
a|-----------------------------------------------------------|
f|--9--9-9-9-9/101010-10-101010/12-12-12\7-7-7-7--7--7-7--7--|
c|-----------------------------------------------------------|
g|--7--7-7-7-7/8--8-8--8--8-8-8/10-10-10\5-5-5-5--5--5-5--5--|
c|-----------------------------------------------------------|
[ Tab from: http://www.guitartabs.cc/tabs/z/zao/psalm_of_the_city_of_the_dead_tab.html ]
d|---------------------------------|-------------------------------|--------|
a|---------------------------------|-------------------------------|--------|
f|-10\7-7-7--7-710\7-7-7/12-12-12--|--9\6-6-6--6-6-9\6-6-6--6-6-6/-|-7~10-9-|
c|---------------------------------|-------------------------------|--------|
g|--8\5-5-5--5-5-8\5-5-5/10-10-10--|--7\4-4-4--4-4-7\4-4-4--4-4-4/-|-5~-8-7-|
c|---------------------------------|-------------------------------|--------|

Do another verse identical to the first one

Chorus Two
Part 1
Part 2
Part 1
Part 3
Part 1
Part 2.5
Part 4

Part 2.5
d|-------------------------------------------------------------------|
a|-------------------------------------------------------------------|
f|--9--9-9-9-9/101010-10-101010/12-12-12/14-14-14-14--14--14-14--14--|
c|-------------------------------------------------------------------|
g|--7--7-7-7-7/8--8-8--8--8-8-8/10-10-10/12-12-12-12--12--12-12--12--|
c|-------------------------------------------------------------------|

Part 4
d|-------------------------------------------------------------|
a|-------------------------------------------------------------|
f|--15--15-15-15\12-12-12--12/14-14-1410101010-10/12-12-12\7~--|
c|-------------------------------------------------------------|
g|--13--13-13-13\10-10-10--10/12-12-12\8-8-8-8--8/10-10-10\5~--|
c|-------------------------------------------------------------|

just keep hitting C chords like 5x or 6x
f|--7--|                               |-----|
c|-----| and maybe open for other gtr  |--0--|
g|--5--| to get some thickness         |--0--|
c|--0--|                               |--0--|

Mellow part (still not totally sure on every note but...the main idea) 
d|--5--5--5-------5-----5--5--3--3/5\3---3---3--3---3-3-3----| 
a|--6--6--6--8p6--5-----5--5--3--3/5\3----3--2--2h3-3-3-3p2--|
f|--7--7--7-------5-----3--5--3--------------0--0---0-0-0----|  4x
c|-----------------------------------------------------------|
g|-----------------------------------------------------------|
c|-----------------------------------------------------------|

Picks up to end jam thing

some form of Cm, Bb,       then Eb, D, 
possibly these    2x               2x  
d|-----|-----|           |-----|-----|
a|-----|-----|           |-----|-----|
f|-----|-----|           |-----|-----|
c|--3--|--2--|           |--3--|--2--|
g|--5--|--3--|           |--3--|--2--|
c|-----|-----|           |--3--|--2--|

It just keeps going back and forth between, 2x of Cm, Bb and 2x of Eb, D,
For the Cm and Bb the right Gtr plays "Main bass riff" and on the second
Eb, D, a lead melody comes in
                            2x                   2x
d|---------------------------||-------------------||
a|---------------------------||-------------------||
f|---------------------------||-------------------||
c|--7-5-3-5--0-5-3--0-3-2-5--||--5-3-2-3--0-3-2~--||
g|---------------------------||-------------------||
c|---------------------------||-------------------||

and on and on
Comments