Zao - Ps 77 Chords & Tabs

 

Ps 77 Chords & Tabs

Zao Chords & Tabs

Version: 1 Type: Bass Tab 0 ratings
1 star 2 stars 3 stars 4 stars 5 stars
comments

Ps 77 Bass Tab

Drop D tuning

Riff 1 
G |----------|
D |----------|
A |----------|
D |--1~--1~--|

Riff 2 
G |-----------------------|
D |-----------------------|
A |-----------------------|
D |--1-1-1-222-1-1-1-444--|

Fill 1 
G |--------|
D |--------|
A |--------|
D |--1--1--|

Riff 3
G |------------------------------------------------------|
D |------------------------------------------------------|
A |--------------------------------------------------6~--|
D |--44-33-1-11-1-44-33-6-666-6-44-33-1-11-1-44-33-6-----|

Riff 4 
G |-------------------------------------|
D |-------------------------------------|
A |--------------33-1-------------------|
D |--11-11-11-11------11-11-11-1-3-4-3--|

Riff 3

Riff 5 
G |---------------------------------------|
D |---------------------------------------|
A |---------------------------------------|
D |--1~-3-4~-1~-3-4~-1~-3-4~-9-9-8-6-4-3--|
[ Tab from: http://www.guitartabs.cc/tabs/z/zao/ps_77_btab.html ]
Riff 6 
G |-------------------------------------|
D |-------------------------------------|
A |-------------------------------------|
D |--1~-3-4~-1~-3-4-3~-1-3-4~-1-3-4-3~--|

Riff 7
G |--------------------------|
D |--------------------------|
A |--------------------------|
D |--4-3-1-4-3-1-4-3-1-4-3~--|

Fill 2 
G |------------------------------|
D |------------------------------|
A |------------------------------|
D |--11-111-11-1111111111111111--|

Riff 8 
G |------------------------|
D |------------------------|
A |------------------------|
D |--1-1-1~-1-1-4444-3333--|

Fill 3 
G |-------------------|
D |-------------------|
A |-------------------|
D |--11-111-11-111-1--|

Riff 9 
G |-------------------------------------------|
D |-------------------------------------------|
A |-------------------------------------------|
D |--1111-1111-1111-1111-1111-1111-3333-2222--|

Riff 10 
G |---------------------|
D |---------------------|
A |-----2-1------8-7-5--|
D |--11-----5-11--------|

Riff 2
Comments