Zao - Latter Rain Chords & Tabs

 

Latter Rain Chords & Tabs

Zao Chords & Tabs

Version: 2 Type: Tab 0 ratings
1 star 2 stars 3 stars 4 stars 5 stars
comments

Latter Rain Tab

Song: The Latter Rain
Band: Zao
Album: Where Blood and Fire Bring Rest

Tuned in "Dropped D" tuning

Intro: 4x on 3rd time add this:

E------------------| --17-17----17--|
B--3---------------| ---------------|
G--2---8---2-------| --------14-----|
D--3---6---0-------| ---------------|
A--1---0---0-------| ---------------|
D------6---0-------| ---------------|

Then it does this: 4x then this: 4x

E----------------| -----------|
B----------------| -----------|
G----------------| -----------|
D--00-5-0-3-0-5--| --0---3-2--|
A--00------------| --0---3-2--|
D--00------------| --0---3-2--|

then the fast part: 8x after 4x, add this: 4x

E------------------| ------------------|
B------------------| ------------------|
G------------------| ------------------|
D--50050050050050--| --0/5/7/8\7/10\8--|
A------------------| ------------------|
D------------------| ------------------|

then it goes: do this: 4x after 4x, then:

E------------| ---------------------| --------------|
B------------| ---------------------| --------------|
G------------| ---------------------| --------------|
D--0000------| ---------------------| --0000--------|
A------------| --10010010010010112--| --------------|
D-------0000-| --10010010010010112--| ---------12\--|
then do this:

E------------------------------------------|
B------------------------------------------|
G------------------------------------------|
D-------------------3--2-------------------|
A--100100100100100--3--2--100100100100100--|
D--100100100100100--3--2--100100100100100--| pause...
[ Tab from: http://www.guitartabs.cc/tabs/z/zao/latter_rain_tab_ver_2.html ]
E------------------------------|
B------------------------------|
G------------------------------|
D-------------------3--2--0-0--|
A--100100100100100--3--2--0-0--|
D--100100100100100--3--2--0-0--|
the slow part is this: 12x after 4x do this on top: 8x

E---------------------| --0---0---0-----|
B---------------------| ---6-6-6-6-6-6--| this track
G--7/9-9/10-7/9-10\7--| ----7---7---7---| is played
D---------------------| ----------------| for the
A---------------------| ----------------| rest of the
D---------------------| ----------------| song.
then dist comes: this: 8x (keep playing the other 2 parts)

E------------| ------------------|
B------------| ------------------|
G------------| ------------------|
D--00000000--| --0---3---2---3---|
A--00000000--| --0---3---2---3---|
D--00000000--| --0---3---2---3---|

then add this: 4x almost play this:

E------------------------| ------------------|
B------------------------| ------------------|
G------------------------| --7---7---7---7---|
D--8/10-10/12-8/10-12\8--| --0---0---0---0---|
A------------------------| --5---5---5---5---|
D------------------------| --0---0---0---0---|

then add:

E--------------------------------| -------------------|
B--------------------------------| -------------------|
G--------------------------------| -------------------|
D--777---101010---999---101010---| --333-777-555-777--|
A--555---8 8 8 ---777---8 8 8 ---| -------------------|
D--000---0 0 0 ---000---0 0 0 ---| -------------------|

then the fianl showdown... do this: 8x then add one:

E--------------------------| -------------| --------|
B--------------------------| -------------| --------|
G--777---777---777---777---| -------------| --------|
D--000---000---000---000---| -------------| --------|
A--555---555---555---555---| --000---000--| --000---|
D--000---000---000---000---| --000---000--| --000---|
Comments