Zao - Growing In Grace Chords & Tabs

 

Growing In Grace Chords & Tabs

Zao Chords & Tabs

Version: 1 Type: Bass Tab 0 ratings
1 star 2 stars 3 stars 4 stars 5 stars
comments

Growing In Grace Bass Tab

Drop D tuning

Riff 1 
G |-------------------|------------|
D |-------------------|------------|
A |-------------------|------------|
D |--1-1-1-1-1-1-1-1--|--11111111--|

Riff 2 
G |--------4-------4-------4----------|
D |------2-------2-------2-------2-1--|
A |-----------------------------------|
D |--1-1-----1-1-----1-1-----1-1------|

G |--------4-------4-------4----------|
D |------2-------2-------2------------|
A |-----------------------------------|
D |--1-1-----1-1-----1-1-----1-1-111--|

Riff 3
G |----------------------------|
D |----------------------------|
A |----------------------------|
D |--1~-111-1h2-11-1h2-11-2p1--|
[ Tab from: http://www.guitartabs.cc/tabs/z/zao/growing_in_grace_btab.html ]
Riff 4
G |---------------------------------------------------|
D |---------------------------------------------------|
A |--------------2-1-2-1-2-1-------------2-1-2-1-2-1--|
D |--3-2-3-2-3-2-------------3-2-3-2-3-2--------------|

Riff 5
G |------------------|
D |--11-11-11-11-22--|
A |------------------|
D |------------------|

Riff 6
G |------------------|
D |------------------|
A |------------------|
D |--11-11-11-11-22--|

Riff 7
G |-----------------------------------|
D |-----------------------------------|
A |-----------------------------------|
D |--3-2-1~-3-2-1h2p1~-3-2-1~-2-1-0~--|

Riff 5 

Fill 
G |-----|
D |-----|
A |-----|
D |--1--|

Riff 2 (2:37)
Riff 3 (2:57)
Riff 2 (3:16)
Riff 4 (3:36)

G |------------------------------------|
D |------------------------------------|
A |-----------7~-7-9~---------7~-7-6~--|
D |--7~-77~-7---------7~-77-7----------|
Comments